  0
SECTION
  2
HEADER
  9
$ACADVER
  1
AC1009
  9
$INSBASE
 10
0
 20
0
 30
0
  9
$EXTMIN
 10
0
 20
0
  9
$EXTMAX
 10
210.25
 20
148.5
  9
$LIMMIN
 10
0
 20
0
  9
$LIMMAX
 10
210.25
 20
148.5
  9
$LTSCALE
 40
0.25
  0
ENDSEC
  0
SECTION
  2
TABLES
  0
TABLE
  2
LTYPE
 70
     9
  0
LTYPE
  2
CONTINUOUS
 70
    64
  3
実線
 72
    65
 73
     0
 40
0.0
  0
LTYPE
  2
DASHED1
 70
    64
  3
--  --  --  --  --  --  --  --  
 72
    65
 73
     2
 40
2.5
 49
1.25
 49
-1.25
  0
LTYPE
  2
DASHED2
 70
    64
  3
----    ----    ----    ----    
 72
    65
 73
     2
 40
5.0
 49
2.5
 49
-2.5
  0
LTYPE
  2
DASHED3
 70
    64
  3
------  ------  ------  ------  
 72
    65
 73
     2
 40
5.0
 49
3.75
 49
-1.25
  0
LTYPE
  2
CENTER1
 70
    64
  3
----- - ----- - ----- - ----- - 
 72
    65
 73
     4
 40
10.0
 49
6.25
 49
-1.25
 49
1.25
 49
-1.25
  0
LTYPE
  2
CENTER2
 70
    64
  3
----------  --  ----------  --  
 72
    65
 73
     4
 40
20.0
 49
12.5
 49
-2.5
 49
2.5
 49
-2.5
  0
LTYPE
  2
PHANTOM1
 70
    64
  3
--- - - --- - - --- - - --- - - 
 72
    65
 73
     6
 40
10.0
 49
3.25
 49
-1.25
 49
1.25
 49
-1.25
 49
1.25
 49
-1.25
  0
LTYPE
  2
PHANTOM2
 70
    64
  3
--------  -  -  --------  -  -  
 72
    65
 73
     6
 40
20.0
 49
10.0
 49
-2.5
 49
1.25
 49
-2.5
 49
1.25
 49
-2.5
  0
LTYPE
  2
DOT
 70
    64
  3
-   -   -   -   -   -   -   -   
 72
    65
 73
     2
 40
2.5
 49
0.625
 49
-1.875
  0
LTYPE
  2
DUMMY
 70
    64
  3
ダミー
 72
    65
 73
     0
 40
0.0
  0
LTYPE
  2
RAND1
 70
    64
  3
----- - ----- - ----- - ----- - 
 72
    65
 73
     4
 40
10.0
 49
6.25
 49
-1.25
 49
1.25
 49
-1.25
  0
LTYPE
  2
RAND2
 70
    64
  3
----------  --  ----------  --  
 72
    65
 73
     4
 40
20.0
 49
12.5
 49
-2.5
 49
2.5
 49
-2.5
  0
LTYPE
  2
RAND3
 70
    64
  3
--- - - --- - - --- - - --- - - 
 72
    65
 73
     6
 40
10.0
 49
3.25
 49
-1.25
 49
1.25
 49
-1.25
 49
1.25
 49
-1.25
  0
LTYPE
  2
RAND4
 70
    64
  3
--------  -  -  --------  -  -  
 72
    65
 73
     6
 40
20.0
 49
10.0
 49
-2.5
 49
1.25
 49
-2.5
 49
1.25
 49
-2.5
  0
LTYPE
  2
RAND5
 70
    64
  3
----- - ----- - ----- - ----- - 
 72
    65
 73
     4
 40
10.0
 49
6.25
 49
-1.25
 49
1.25
 49
-1.25
  0
LTYPE
  2
LONG1
 70
    64
  3
----------  --  ----------  --  
 72
    65
 73
     4
 40
20.0
 49
12.5
 49
-2.5
 49
2.5
 49
-2.5
  0
LTYPE
  2
LONG2
 70
    64
  3
--- - - --- - - --- - - --- - - 
 72
    65
 73
     6
 40
10.0
 49
3.25
 49
-1.25
 49
1.25
 49
-1.25
 49
1.25
 49
-1.25
  0
LTYPE
  2
LONG3
 70
    64
  3
--------  -  -  --------  -  -  
 72
    65
 73
     6
 40
20.0
 49
10.0
 49
-2.5
 49
1.25
 49
-2.5
 49
1.25
 49
-2.5
  0
LTYPE
  2
LONG4
 70
    64
  3
----- - ----- - ----- - ----- - 
 72
    65
 73
     4
 40
10.0
 49
6.25
 49
-1.25
 49
1.25
 49
-1.25
  0
LTYPE
  2
LONG5
 70
    64
  3
----------  --  ----------  --  
 72
    65
 73
     4
 40
20.0
 49
12.5
 49
-2.5
 49
2.5
 49
-2.5
  0
ENDTAB
  0
TABLE
  2
STYLE
  5
3
100
AcDbSymbolTable
 70
     1
  0
STYLE
  5
10
100
AcDbSymbolTableRecord
100
AcDbTextStyleTableRecord
  2
STANDARD
 70
     0
 40
0.0
 41
1.0
 50
0.0
 71
     0
 42
0.2
  3
txt
  4
bigfont.shx
  0
STYLE
  5
26
100
AcDbSymbolTableRecord
100
AcDbTextStyleTableRecord
  2
TATEGAKI
 70
    68
 40
0.0
 41
1.0
 50
0.0
 71
     0
 42
1.0
  3
txt
  4
bigfont.shx
  0
ENDTAB
  0
TABLE
  2
LAYER
 70
    3
  0
LAYER
  2
_0-0_0
 70
   64
 62
    7
  6
CONTINUOUS
  0
LAYER
  2
_0-1_レイヤ___1
 70
   64
 62
    7
  6
CONTINUOUS
  0
LAYER
  2
ADD_LINE
 70
   64
 62
    7
  6
CONTINUOUS
  0
ENDTAB
  0
ENDSEC
  0
SECTION
  2
BLOCKS
  0
ENDSEC
  0
SECTION
  2
ENTITIES
  0
LINE
  8
_0-1_レイヤ___1
  6
CONTINUOUS
 62
    7
 10
305.10883000000001
 20
-155.13341
 11
305.10883000000001
 21
-195.13855000000001
  0
LINE
  8
_0-1_レイヤ___1
  6
CONTINUOUS
 62
    7
 10
175.14501000000001
 20
-155.13341
 11
305.10883000000001
 21
-155.13341
  0
LINE
  8
_0-1_レイヤ___1
  6
CONTINUOUS
 62
    7
 10
175.14501000000001
 20
-195.13855000000001
 11
175.14501000000001
 21
-155.13341
  0
LINE
  8
_0-1_レイヤ___1
  6
CONTINUOUS
 62
    7
 10
305.10883000000001
 20
-195.13855000000001
 11
175.14501000000001
 21
-195.13855000000001
  0
LINE
  8
_0-1_レイヤ___1
  6
CONTINUOUS
 62
    7
 10
305.10883000000001
 20
-155.13341
 11
305.10883000000001
 21
-195.13855000000001
  0
LINE
  8
_0-1_レイヤ___1
  6
CONTINUOUS
 62
    7
 10
175.14501000000001
 20
-155.13341
 11
305.10883000000001
 21
-155.13341
  0
LINE
  8
_0-1_レイヤ___1
  6
CONTINUOUS
 62
    7
 10
175.14501000000001
 20
-195.13855000000001
 11
175.14501000000001
 21
-155.13341
  0
LINE
  8
_0-1_レイヤ___1
  6
CONTINUOUS
 62
    7
 10
175.14501000000001
 20
-155.13341
 11
175.14501000000001
 21
-190.99554999999998
  0
LINE
  8
_0-1_レイヤ___1
  6
CONTINUOUS
 62
    7
 10
45.139168999999995
 20
-155.13341
 11
175.14501000000001
 21
-155.13341
  0
LINE
  8
_0-1_レイヤ___1
  6
CONTINUOUS
 62
    7
 10
45.139168999999995
 20
-195.13855000000001
 11
45.139168999999995
 21
-155.13341
  0
LINE
  8
_0-1_レイヤ___1
  6
CONTINUOUS
 62
    7
 10
175.14501000000001
 20
-195.13855000000001
 11
45.139168999999995
 21
-195.13855000000001
  0
LINE
  8
_0-1_レイヤ___1
  6
CONTINUOUS
 62
    7
 10
175.14501000000001
 20
-195.13855000000001
 11
305.10883000000001
 21
-195.13855000000001
  0
LINE
  8
_0-1_レイヤ___1
  6
CONTINUOUS
 62
    7
 10
337.62088
 20
-125.11905400000001
 11
334.61504000000002
 21
-125.11905400000001
  0
LINE
  8
_0-1_レイヤ___1
  6
CONTINUOUS
 62
    7
 10
334.61504000000002
 20
-125.11905400000001
 11
334.61504000000002
 21
-165.12419
  0
LINE
  8
_0-1_レイヤ___1
  6
CONTINUOUS
 62
    7
 10
334.61504000000002
 20
-165.12419
 11
337.62088
 21
-165.12419
  0
LINE
  8
_0-1_レイヤ___1
  6
CONTINUOUS
 62
    7
 10
337.62088
 20
-165.12419
 11
337.62088
 21
-125.11905400000001
  0
LINE
  8
_0-1_レイヤ___1
  6
CONTINUOUS
 62
    7
 10
15.632615000000001
 20
-125.11905400000001
 11
12.627114000000006
 21
-125.11905400000001
  0
LINE
  8
_0-1_レイヤ___1
  6
CONTINUOUS
 62
    7
 10
12.627114000000006
 20
-125.11905400000001
 11
12.627114000000006
 21
-165.12419
  0
LINE
  8
_0-1_レイヤ___1
  6
CONTINUOUS
 62
    7
 10
12.627114000000006
 20
-165.12419
 11
15.632615000000001
 21
-165.12419
  0
LINE
  8
_0-1_レイヤ___1
  6
CONTINUOUS
 62
    7
 10
15.632615000000001
 20
-165.12419
 11
15.632615000000001
 21
-125.11905400000001
  0
LINE
  8
_0-1_レイヤ___1
  6
CONTINUOUS
 62
    7
 10
382.62106
 20
119.86409
 11
381.73257000000001
 21
119.10238000000001
  0
LINE
  8
_0-1_レイヤ___1
  6
CONTINUOUS
 62
    7
 10
381.73257000000001
 20
119.10238000000001
 11
380.84339
 21
118.29830000000001
  0
LINE
  8
_0-1_レイヤ___1
  6
CONTINUOUS
 62
    7
 10
380.84339
 20
118.29830000000001
 11
379.95456000000001
 21
117.49351999999999
  0
LINE
  8
_0-1_レイヤ___1
  6
CONTINUOUS
 62
    7
 10
379.95456000000001
 20
117.49351999999999
 11
379.02231999999998
 21
116.68978000000001
  0
LINE
  8
_0-1_レイヤ___1
  6
CONTINUOUS
 62
    7
 10
379.02231999999998
 20
116.68978000000001
 11
378.09111000000001
 21
115.84263000000001
  0
LINE
  8
_0-1_レイヤ___1
  6
CONTINUOUS
 62
    7
 10
378.09111000000001
 20
115.84263000000001
 11
377.16023999999999
 21
114.95345
  0
LINE
  8
_0-1_レイヤ___1
  6
CONTINUOUS
 62
    7
 10
377.16023999999999
 20
114.95345
 11
376.22868999999997
 21
114.06461999999999
  0
LINE
  8
_0-1_レイヤ___1
  6
CONTINUOUS
 62
    7
 10
376.22868999999997
 20
114.06461999999999
 11
375.29712999999998
 21
113.17578
  0
LINE
  8
_0-1_レイヤ___1
  6
CONTINUOUS
 62
    7
 10
375.29712999999998
 20
113.17578
 11
374.36558000000002
 21
112.24458000000001
  0
LINE
  8
_0-1_レイヤ___1
  6
CONTINUOUS
 62
    7
 10
374.36558000000002
 20
112.24458000000001
 11
373.39233999999999
 21
111.31268
  0
LINE
  8
_0-1_レイヤ___1
  6
CONTINUOUS
 62
    7
 10
373.39233999999999
 20
111.31268
 11
372.46044000000001
 21
110.33944
  0
LINE
  8
_0-1_レイヤ___1
  6
CONTINUOUS
 62
    7
 10
372.46044000000001
 20
110.33944
 11
371.48755
 21
109.32312999999999
  0
LINE
  8
_0-1_レイヤ___1
  6
CONTINUOUS
 62
    7
 10
371.48755
 20
109.32312999999999
 11
370.55599000000001
 21
108.30682999999999
  0
LINE
  8
_0-1_レイヤ___1
  6
CONTINUOUS
 62
    7
 10
370.55599000000001
 20
108.30682999999999
 11
369.58206999999999
 21
107.24919
  0
LINE
  8
_0-1_レイヤ___1
  6
CONTINUOUS
 62
    7
 10
369.58206999999999
 20
107.24919
 11
368.60883000000001
 21
106.19085000000001
  0
LINE
  8
_0-1_レイヤ___1
  6
CONTINUOUS
 62
    7
 10
368.60883000000001
 20
106.19085000000001
 11
367.67795999999998
 21
105.13252
  0
LINE
  8
_0-1_レイヤ___1
  6
CONTINUOUS
 62
    7
 10
367.67795999999998
 20
105.13252
 11
366.70334000000003
 21
103.98944
  0
LINE
  8
_0-1_レイヤ___1
  6
CONTINUOUS
 62
    7
 10
366.70334000000003
 20
103.98944
 11
365.77247999999997
 21
102.8467
  0
LINE
  8
_0-1_レイヤ___1
  6
CONTINUOUS
 62
    7
 10
365.77247999999997
 20
102.8467
 11
364.79854999999998
 21
101.70293000000001
  0
LINE
  8
_0-1_レイヤ___1
  6
CONTINUOUS
 62
    7
 10
364.79854999999998
 20
101.70293000000001
 11
363.86700000000002
 21
100.51815999999999
  0
LINE
  8
_0-1_レイヤ___1
  6
CONTINUOUS
 62
    7
 10
363.86700000000002
 20
100.51815999999999
 11
362.93612999999999
 21
99.290330000000012
  0
LINE
  8
_0-1_レイヤ___1
  6
CONTINUOUS
 62
    7
 10
362.93612999999999
 20
99.290330000000012
 11
362.00457999999998
 21
98.0625
  0
LINE
  8
_0-1_レイヤ___1
  6
CONTINUOUS
 62
    7
 10
362.00457999999998
 20
98.0625
 11
361.07267999999999
 21
96.79298
  0
LINE
  8
_0-1_レイヤ___1
  6
CONTINUOUS
 62
    7
 10
361.07267999999999
 20
96.79298
 11
360.14181000000002
 21
95.480050000000006
  0
LINE
  8
_0-1_レイヤ___1
  6
CONTINUOUS
 62
    7
 10
360.14181000000002
 20
95.480050000000006
 11
359.21060999999997
 21
94.167820000000006
  0
LINE
  8
_0-1_レイヤ___1
  6
CONTINUOUS
 62
    7
 10
359.21060999999997
 20
94.167820000000006
 11
358.32177000000001
 21
92.812860000000001
  0
LINE
  8
_0-1_レイヤ___1
  6
CONTINUOUS
 62
    7
 10
358.32177000000001
 20
92.812860000000001
 11
357.39055999999999
 21
91.416560000000004
  0
LINE
  8
_0-1_レイヤ___1
  6
CONTINUOUS
 62
    7
 10
357.39055999999999
 20
91.416560000000004
 11
356.50137999999998
 21
90.019580000000005
  0
LINE
  8
_0-1_レイヤ___1
  6
CONTINUOUS
 62
    7
 10
356.50137999999998
 20
90.019580000000005
 11
355.65458000000001
 21
88.580209999999994
  0
LINE
  8
_0-1_レイヤ___1
  6
CONTINUOUS
 62
    7
 10
355.65458000000001
 20
88.580209999999994
 11
354.76573999999999
 21
87.140159999999995
  0
LINE
  8
_0-1_レイヤ___1
  6
CONTINUOUS
 62
    7
 10
354.76573999999999
 20
87.140159999999995
 11
353.91894000000002
 21
85.659120000000001
  0
LINE
  8
_0-1_レイヤ___1
  6
CONTINUOUS
 62
    7
 10
353.91894000000002
 20
85.659120000000001
 11
353.07179000000002
 21
84.135350000000003
  0
LINE
  8
_0-1_レイヤ___1
  6
CONTINUOUS
 62
    7
 10
353.07179000000002
 20
84.135350000000003
 11
352.26805000000002
 21
82.568870000000004
  0
LINE
  8
_0-1_レイヤ___1
  6
CONTINUOUS
 62
    7
 10
352.26805000000002
 20
82.568870000000004
 11
351.42124000000001
 21
81.002380000000002
  0
LINE
  8
_0-1_レイヤ___1
  6
CONTINUOUS
 62
    7
 10
351.42124000000001
 20
81.002380000000002
 11
350.65953000000002
 21
79.351489999999998
  0
LINE
  8
_0-1_レイヤ___1
  6
CONTINUOUS
 62
    7
 10
350.65953000000002
 20
79.351489999999998
 11
349.85476
 21
77.742980000000003
  0
LINE
  8
_0-1_レイヤ___1
  6
CONTINUOUS
 62
    7
 10
349.85476
 20
77.742980000000003
 11
349.09269999999998
 21
76.049369999999996
  0
LINE
  8
_0-1_レイヤ___1
  6
CONTINUOUS
 62
    7
 10
349.09269999999998
 20
76.049369999999996
 11
348.71202
 21
75.202219999999997
  0
LINE
  8
_0-1_レイヤ___1
  6
CONTINUOUS
 62
    7
 10
348.71202
 20
75.202219999999997
 11
348.33098999999999
 21
74.356449999999995
  0
LINE
  8
_0-1_レイヤ___1
  6
CONTINUOUS
 62
    7
 10
348.33098999999999
 20
74.356449999999995
 11
347.99234000000001
 21
73.467269999999999
  0
LINE
  8
_0-1_レイヤ___1
  6
CONTINUOUS
 62
    7
 10
347.99234000000001
 20
73.467269999999999
 11
347.61131
 21
72.62012
  0
LINE
  8
_0-1_レイヤ___1
  6
CONTINUOUS
 62
    7
 10
347.61131
 20
72.62012
 11
347.27265999999997
 21
71.731290000000001
  0
LINE
  8
_0-1_レイヤ___1
  6
CONTINUOUS
 62
    7
 10
347.27265999999997
 20
71.731290000000001
 11
346.89163000000002
 21
70.842449999999999
  0
LINE
  8
_0-1_レイヤ___1
  6
CONTINUOUS
 62
    7
 10
346.89163000000002
 20
70.842449999999999
 11
346.55297999999999
 21
69.953270000000003
  0
LINE
  8
_0-1_レイヤ___1
  6
CONTINUOUS
 62
    7
 10
346.55297999999999
 20
69.953270000000003
 11
346.21433000000002
 21
69.022412000000003
  0
LINE
  8
_0-1_レイヤ___1
  6
CONTINUOUS
 62
    7
 10
346.21433000000002
 20
69.022412000000003
 11
345.87533000000002
 21
68.090169000000003
  0
LINE
  8
_0-1_レイヤ___1
  6
CONTINUOUS
 62
    7
 10
345.87533000000002
 20
68.090169000000003
 11
345.53667999999999
 21
67.201335
  0
LINE
  8
_0-1_レイヤ___1
  6
CONTINUOUS
 62
    7
 10
345.53667999999999
 20
67.201335
 11
345.24005
 21
66.270470000000003
  0
LINE
  8
_0-1_レイヤ___1
  6
CONTINUOUS
 62
    7
 10
345.24005
 20
66.270470000000003
 11
344.90208999999999
 21
65.296886000000001
  0
LINE
  8
_0-1_レイヤ___1
  6
CONTINUOUS
 62
    7
 10
344.90208999999999
 20
65.296886000000001
 11
344.60581000000002
 21
64.365331999999995
  0
LINE
  8
_0-1_レイヤ___1
  6
CONTINUOUS
 62
    7
 10
344.60581000000002
 20
64.365331999999995
 11
344.26681000000002
 21
63.391748000000007
  0
LINE
  8
_0-1_レイヤ___1
  6
CONTINUOUS
 62
    7
 10
344.26681000000002
 20
63.391748000000007
 11
343.97054000000003
 21
62.460882999999995
  0
LINE
  8
_0-1_レイヤ___1
  6
CONTINUOUS
 62
    7
 10
343.97054000000003
 20
62.460882999999995
 11
343.6746
 21
61.486609999999999
  0
LINE
  8
_0-1_レイヤ___1
  6
CONTINUOUS
 62
    7
 10
343.6746
 20
61.486609999999999
 11
343.37797999999998
 21
60.470996
  0
LINE
  8
_0-1_レイヤ___1
  6
CONTINUOUS
 62
    7
 10
343.37797999999998
 20
60.470996
 11
343.08136000000002
 21
59.497411999999997
  0
LINE
  8
_0-1_レイヤ___1
  6
CONTINUOUS
 62
    7
 10
343.08136000000002
 20
59.497411999999997
 11
342.82780000000002
 21
58.481109000000004
  0
LINE
  8
_0-1_レイヤ___1
  6
CONTINUOUS
 62
    7
 10
342.82780000000002
 20
58.481109000000004
 11
342.53118000000001
 21
57.507525000000001
  0
LINE
  8
_0-1_レイヤ___1
  6
CONTINUOUS
 62
    7
 10
342.53118000000001
 20
57.507525000000001
 11
342.27726999999999
 21
56.491221999999993
  0
LINE
  8
_0-1_レイヤ___1
  6
CONTINUOUS
 62
    7
 10
342.27726999999999
 20
56.491221999999993
 11
342.02301999999997
 21
55.432888000000005
  0
LINE
  8
_0-1_レイヤ___1
  6
CONTINUOUS
 62
    7
 10
342.02301999999997
 20
55.432888000000005
 11
341.76945999999998
 21
54.417274000000006
  0
LINE
  8
_0-1_レイヤ___1
  6
CONTINUOUS
 62
    7
 10
341.76945999999998
 20
54.417274000000006
 11
341.51452999999998
 21
53.358941000000002
  0
LINE
  8
_0-1_レイヤ___1
  6
CONTINUOUS
 62
    7
 10
341.51452999999998
 20
53.358941000000002
 11
341.26096999999999
 21
52.300607999999997
  0
LINE
  8
_0-1_レイヤ___1
  6
CONTINUOUS
 62
    7
 10
341.26096999999999
 20
52.300607999999997
 11
341.04978
 21
51.242273999999995
  0
LINE
  8
_0-1_レイヤ___1
  6
CONTINUOUS
 62
    7
 10
341.04978
 20
51.242273999999995
 11
340.79518999999999
 21
50.183941000000004
  0
LINE
  8
_0-1_レイヤ___1
  6
CONTINUOUS
 62
    7
 10
340.79518999999999
 20
50.183941000000004
 11
340.58366000000001
 21
49.083577000000005
  0
LINE
  8
_0-1_レイヤ___1
  6
CONTINUOUS
 62
    7
 10
340.58366000000001
 20
49.083577000000005
 11
340.37213000000003
 21
48.025244000000001
  0
LINE
  8
_0-1_レイヤ___1
  6
CONTINUOUS
 62
    7
 10
340.37213000000003
 20
48.025244000000001
 11
340.16061000000002
 21
46.923502999999997
  0
LINE
  8
_0-1_レイヤ___1
  6
CONTINUOUS
 62
    7
 10
340.16061000000002
 20
46.923502999999997
 11
339.94907999999998
 21
45.823138999999998
  0
LINE
  8
_0-1_レイヤ___1
  6
CONTINUOUS
 62
    7
 10
339.94907999999998
 20
45.823138999999998
 11
339.77958000000001
 21
44.680745000000002
  0
LINE
  8
_0-1_レイヤ___1
  6
CONTINUOUS
 62
    7
 10
339.77958000000001
 20
44.680745000000002
 11
339.61041999999998
 21
43.580382
  0
LINE
  8
_0-1_レイヤ___1
  6
CONTINUOUS
 62
    7
 10
339.61041999999998
 20
43.580382
 11
339.39888999999999
 21
42.436610000000002
  0
LINE
  8
_0-1_レイヤ___1
  6
CONTINUOUS
 62
    7
 10
339.39888999999999
 20
42.436610000000002
 11
339.2294
 21
41.294217000000003
  0
LINE
  8
_0-1_レイヤ___1
  6
CONTINUOUS
 62
    7
 10
339.2294
 20
41.294217000000003
 11
339.10226999999998
 21
40.108414999999994
  0
LINE
  8
_0-1_レイヤ___1
  6
CONTINUOUS
 62
    7
 10
339.10226999999998
 20
40.108414999999994
 11
338.93311999999997
 21
38.966020999999998
  0
LINE
  8
_0-1_レイヤ___1
  6
CONTINUOUS
 62
    7
 10
338.93311999999997
 20
38.966020999999998
 11
338.80565000000001
 21
37.780219000000002
  0
LINE
  8
_0-1_レイヤ___1
  6
CONTINUOUS
 62
    7
 10
338.80565000000001
 20
37.780219000000002
 11
338.63650000000001
 21
36.594417000000007
  0
LINE
  8
_0-1_レイヤ___1
  6
CONTINUOUS
 62
    7
 10
338.63650000000001
 20
36.594417000000007
 11
338.50972000000002
 21
35.409993
  0
LINE
  8
_0-1_レイヤ___1
  6
CONTINUOUS
 62
    7
 10
338.50972000000002
 20
35.409993
 11
338.38294000000002
 21
34.224192000000002
  0
LINE
  8
_0-1_レイヤ___1
  6
CONTINUOUS
 62
    7
 10
338.38294000000002
 20
34.224192000000002
 11
338.29784000000001
 21
32.996360000000003
  0
LINE
  8
_0-1_レイヤ___1
  6
CONTINUOUS
 62
    7
 10
338.29784000000001
 20
32.996360000000003
 11
338.17106000000001
 21
31.768528000000003
  0
LINE
  8
_0-1_レイヤ___1
  6
CONTINUOUS
 62
    7
 10
338.17106000000001
 20
31.768528000000003
 11
338.08596999999997
 21
30.540695999999997
  0
LINE
  8
_0-1_レイヤ___1
  6
CONTINUOUS
 62
    7
 10
338.08596999999997
 20
30.540695999999997
 11
338.00191000000001
 21
29.312863
  0
LINE
  8
_0-1_レイヤ___1
  6
CONTINUOUS
 62
    7
 10
338.00191000000001
 20
29.312863
 11
337.91681
 21
28.043000999999997
  0
LINE
  8
_0-1_レイヤ___1
  6
CONTINUOUS
 62
    7
 10
337.91681
 20
28.043000999999997
 11
337.83240999999998
 21
26.773139
  0
LINE
  8
_0-1_レイヤ___1
  6
CONTINUOUS
 62
    7
 10
337.83240999999998
 20
26.773139
 11
337.79038000000003
 21
25.503276999999997
  0
LINE
  8
_0-1_レイヤ___1
  6
CONTINUOUS
 62
    7
 10
337.79038000000003
 20
25.503276999999997
 11
337.74732
 21
24.233415000000001
  0
LINE
  8
_0-1_レイヤ___1
  6
CONTINUOUS
 62
    7
 10
337.74732
 20
24.233415000000001
 11
337.70494000000002
 21
22.963552999999997
  0
LINE
  8
_0-1_レイヤ___1
  6
CONTINUOUS
 62
    7
 10
337.70494000000002
 20
22.963552999999997
 11
337.66291000000001
 21
21.650970999999998
  0
LINE
  8
_0-1_レイヤ___1
  6
CONTINUOUS
 62
    7
 10
337.66291000000001
 20
21.650970999999998
 11
337.66291000000001
 21
20.339078999999998
  0
LINE
  8
_0-1_レイヤ___1
  6
CONTINUOUS
 62
    7
 10
337.66291000000001
 20
20.339078999999998
 11
337.62088
 21
19.026496999999999
  0
LINE
  8
_0-1_レイヤ___1
  6
CONTINUOUS
 62
    7
 10
337.62088
 20
19.026496999999999
 11
337.62088
 21
-23.730582999999996
  0
LINE
  8
_0-1_レイヤ___1
  6
CONTINUOUS
 62
    7
 10
337.62088
 20
-95.146723000000009
 11
367.63454999999999
 21
-112.164806
  0
LINE
  8
_0-1_レイヤ___1
  6
CONTINUOUS
 62
    7
 10
367.63454999999999
 20
-112.164806
 11
367.63454999999999
 21
-178.07844
  0
LINE
  8
_0-1_レイヤ___1
  6
CONTINUOUS
 62
    7
 10
367.63454999999999
 20
-178.07844
 11
337.62088
 21
-195.13855000000001
  0
LINE
  8
_0-1_レイヤ___1
  6
CONTINUOUS
 62
    7
 10
12.627114000000006
 20
-195.13855000000001
 11
-17.344527999999997
 21
-178.07844
  0
LINE
  8
_0-1_レイヤ___1
  6
CONTINUOUS
 62
    7
 10
-17.344527999999997
 20
-178.07844
 11
-17.344527999999997
 21
-112.164806
  0
LINE
  8
_0-1_レイヤ___1
  6
CONTINUOUS
 62
    7
 10
-17.344527999999997
 20
-112.164806
 11
12.627114000000006
 21
-95.146723000000009
  0
LINE
  8
_0-1_レイヤ___1
  6
CONTINUOUS
 62
    7
 10
12.627114000000006
 20
17.671886000000001
 11
12.627114000000006
 21
20.339078999999998
  0
LINE
  8
_0-1_レイヤ___1
  6
CONTINUOUS
 62
    7
 10
12.627114000000006
 20
20.339078999999998
 11
12.584738999999999
 21
21.650970999999998
  0
LINE
  8
_0-1_レイヤ___1
  6
CONTINUOUS
 62
    7
 10
12.584738999999999
 20
21.650970999999998
 11
12.542709000000002
 21
22.963552999999997
  0
LINE
  8
_0-1_レイヤ___1
  6
CONTINUOUS
 62
    7
 10
12.542709000000002
 20
22.963552999999997
 11
12.500334000000009
 21
24.233415000000001
  0
LINE
  8
_0-1_レイヤ___1
  6
CONTINUOUS
 62
    7
 10
12.500334000000009
 20
24.233415000000001
 11
12.457615000000004
 21
25.503276999999997
  0
LINE
  8
_0-1_レイヤ___1
  6
CONTINUOUS
 62
    7
 10
12.457615000000004
 20
25.503276999999997
 11
12.415584999999993
 21
26.773139
  0
LINE
  8
_0-1_レイヤ___1
  6
CONTINUOUS
 62
    7
 10
12.415584999999993
 20
26.773139
 11
12.331180000000003
 21
28.043000999999997
  0
LINE
  8
_0-1_レイヤ___1
  6
CONTINUOUS
 62
    7
 10
12.331180000000003
 20
28.043000999999997
 11
12.246085999999991
 21
29.312863
  0
LINE
  8
_0-1_レイヤ___1
  6
CONTINUOUS
 62
    7
 10
12.246085999999991
 20
29.312863
 11
12.161681000000002
 21
30.540695999999997
  0
LINE
  8
_0-1_レイヤ___1
  6
CONTINUOUS
 62
    7
 10
12.161681000000002
 20
30.540695999999997
 11
12.076587000000004
 21
31.768528000000003
  0
LINE
  8
_0-1_レイヤ___1
  6
CONTINUOUS
 62
    7
 10
12.076587000000004
 20
31.768528000000003
 11
11.950496999999999
 21
32.996360000000003
  0
LINE
  8
_0-1_レイヤ___1
  6
CONTINUOUS
 62
    7
 10
11.950496999999999
 20
32.996360000000003
 11
11.865059000000002
 21
34.224192000000002
  0
LINE
  8
_0-1_レイヤ___1
  6
CONTINUOUS
 62
    7
 10
11.865059000000002
 20
34.224192000000002
 11
11.737934999999993
 21
35.409993
  0
LINE
  8
_0-1_レイヤ___1
  6
CONTINUOUS
 62
    7
 10
11.737934999999993
 20
35.409993
 11
11.611500000000007
 21
36.594417000000007
  0
LINE
  8
_0-1_レイヤ___1
  6
CONTINUOUS
 62
    7
 10
11.611500000000007
 20
36.594417000000007
 11
11.484375999999997
 21
37.780219000000002
  0
LINE
  8
_0-1_レイヤ___1
  6
CONTINUOUS
 62
    7
 10
11.484375999999997
 20
37.780219000000002
 11
11.315221000000008
 21
38.966020999999998
  0
LINE
  8
_0-1_レイヤ___1
  6
CONTINUOUS
 62
    7
 10
11.315221000000008
 20
38.966020999999998
 11
11.187753000000001
 21
40.108414999999994
  0
LINE
  8
_0-1_レイヤ___1
  6
CONTINUOUS
 62
    7
 10
11.187753000000001
 20
40.108414999999994
 11
11.018253999999999
 21
41.294217000000003
  0
LINE
  8
_0-1_レイヤ___1
  6
CONTINUOUS
 62
    7
 10
11.018253999999999
 20
41.294217000000003
 11
10.849099999999993
 21
42.436610000000002
  0
LINE
  8
_0-1_レイヤ___1
  6
CONTINUOUS
 62
    7
 10
10.849099999999993
 20
42.436610000000002
 11
10.679600999999991
 21
43.580382
  0
LINE
  8
_0-1_レイヤ___1
  6
CONTINUOUS
 62
    7
 10
10.679600999999991
 20
43.580382
 11
10.468072000000006
 21
44.680745000000002
  0
LINE
  8
_0-1_レイヤ___1
  6
CONTINUOUS
 62
    7
 10
10.468072000000006
 20
44.680745000000002
 11
10.298918
 21
45.823138999999998
  0
LINE
  8
_0-1_レイヤ___1
  6
CONTINUOUS
 62
    7
 10
10.298918
 20
45.823138999999998
 11
10.087045000000003
 21
46.923502999999997
  0
LINE
  8
_0-1_レイヤ___1
  6
CONTINUOUS
 62
    7
 10
10.087045000000003
 20
46.923502999999997
 11
9.875860000000003
 21
48.025244000000001
  0
LINE
  8
_0-1_レイヤ___1
  6
CONTINUOUS
 62
    7
 10
9.875860000000003
 20
48.025244000000001
 11
9.6639869999999917
 21
49.083577000000005
  0
LINE
  8
_0-1_レイヤ___1
  6
CONTINUOUS
 62
    7
 10
9.6639869999999917
 20
49.083577000000005
 11
9.452803000000003
 21
50.183941000000004
  0
LINE
  8
_0-1_レイヤ___1
  6
CONTINUOUS
 62
    7
 10
9.452803000000003
 20
50.183941000000004
 11
9.24058500000001
 21
51.242273999999995
  0
LINE
  8
_0-1_レイヤ___1
  6
CONTINUOUS
 62
    7
 10
9.24058500000001
 20
51.242273999999995
 11
8.9866810000000044
 21
52.300607999999997
  0
LINE
  8
_0-1_レイヤ___1
  6
CONTINUOUS
 62
    7
 10
8.9866810000000044
 20
52.300607999999997
 11
8.7331220000000087
 21
53.358941000000002
  0
LINE
  8
_0-1_レイヤ___1
  6
CONTINUOUS
 62
    7
 10
8.7331220000000087
 20
53.358941000000002
 11
8.4785300000000063
 21
54.417274000000006
  0
LINE
  8
_0-1_レイヤ___1
  6
CONTINUOUS
 62
    7
 10
8.4785300000000063
 20
54.417274000000006
 11
8.2246260000000007
 21
55.432888000000005
  0
LINE
  8
_0-1_レイヤ___1
  6
CONTINUOUS
 62
    7
 10
8.2246260000000007
 20
55.432888000000005
 11
7.9703779999999966
 21
56.491221999999993
  0
LINE
  8
_0-1_レイヤ___1
  6
CONTINUOUS
 62
    7
 10
7.9703779999999966
 20
56.491221999999993
 11
7.716819000000001
 21
57.507525000000001
  0
LINE
  8
_0-1_レイヤ___1
  6
CONTINUOUS
 62
    7
 10
7.716819000000001
 20
57.507525000000001
 11
7.4201960000000042
 21
58.481109000000004
  0
LINE
  8
_0-1_レイヤ___1
  6
CONTINUOUS
 62
    7
 10
7.4201960000000042
 20
58.481109000000004
 11
7.166292999999996
 21
59.497411999999997
  0
LINE
  8
_0-1_レイヤ___1
  6
CONTINUOUS
 62
    7
 10
7.166292999999996
 20
59.497411999999997
 11
6.8700149999999951
 21
60.470996
  0
LINE
  8
_0-1_レイヤ___1
  6
CONTINUOUS
 62
    7
 10
6.8700149999999951
 20
60.470996
 11
6.5733919999999983
 21
61.486609999999999
  0
LINE
  8
_0-1_レイヤ___1
  6
CONTINUOUS
 62
    7
 10
6.5733919999999983
 20
61.486609999999999
 11
6.2774579999999958
 21
62.460882999999995
  0
LINE
  8
_0-1_レイヤ___1
  6
CONTINUOUS
 62
    7
 10
6.2774579999999958
 20
62.460882999999995
 11
5.980834999999999
 21
63.391748000000007
  0
LINE
  8
_0-1_レイヤ___1
  6
CONTINUOUS
 62
    7
 10
5.980834999999999
 20
63.391748000000007
 11
5.6845569999999981
 21
64.365331999999995
  0
LINE
  8
_0-1_レイヤ___1
  6
CONTINUOUS
 62
    7
 10
5.6845569999999981
 20
64.365331999999995
 11
5.3455600000000061
 21
65.296886000000001
  0
LINE
  8
_0-1_レイヤ___1
  6
CONTINUOUS
 62
    7
 10
5.3455600000000061
 20
65.296886000000001
 11
5.0496260000000035
 21
66.270470000000003
  0
LINE
  8
_0-1_レイヤ___1
  6
CONTINUOUS
 62
    7
 10
5.0496260000000035
 20
66.270470000000003
 11
4.7109729999999956
 21
67.201335
  0
LINE
  8
_0-1_レイヤ___1
  6
CONTINUOUS
 62
    7
 10
4.7109729999999956
 20
67.201335
 11
4.372320000000002
 21
68.090169000000003
  0
LINE
  8
_0-1_レイヤ___1
  6
CONTINUOUS
 62
    7
 10
4.372320000000002
 20
68.090169000000003
 11
4.0336680000000058
 21
69.022412000000003
  0
LINE
  8
_0-1_レイヤ___1
  6
CONTINUOUS
 62
    7
 10
4.0336680000000058
 20
69.022412000000003
 11
3.6946700000000021
 21
69.953270000000003
  0
LINE
  8
_0-1_レイヤ___1
  6
CONTINUOUS
 62
    7
 10
3.6946700000000021
 20
69.953270000000003
 11
3.3560170000000085
 21
70.842449999999999
  0
LINE
  8
_0-1_レイヤ___1
  6
CONTINUOUS
 62
    7
 10
3.3560170000000085
 20
70.842449999999999
 11
2.9749899999999911
 21
71.731290000000001
  0
LINE
  8
_0-1_レイヤ___1
  6
CONTINUOUS
 62
    7
 10
2.9749899999999911
 20
71.731290000000001
 11
2.6363369999999975
 21
72.62012
  0
LINE
  8
_0-1_レイヤ___1
  6
CONTINUOUS
 62
    7
 10
2.6363369999999975
 20
72.62012
 11
2.2553089999999969
 21
73.467269999999999
  0
LINE
  8
_0-1_レイヤ___1
  6
CONTINUOUS
 62
    7
 10
2.2553089999999969
 20
73.467269999999999
 11
1.9166560000000032
 21
74.356449999999995
  0
LINE
  8
_0-1_レイヤ___1
  6
CONTINUOUS
 62
    7
 10
1.9166560000000032
 20
74.356449999999995
 11
1.5359729999999985
 21
75.202219999999997
  0
LINE
  8
_0-1_レイヤ___1
  6
CONTINUOUS
 62
    7
 10
1.5359729999999985
 20
75.202219999999997
 11
1.1549459999999954
 21
76.049369999999996
  0
LINE
  8
_0-1_レイヤ___1
  6
CONTINUOUS
 62
    7
 10
1.1549459999999954
 20
76.049369999999996
 11
0.39358
 21
77.742980000000003
  0
LINE
  8
_0-1_レイヤ___1
  6
CONTINUOUS
 62
    7
 10
0.39358
 20
77.742980000000003
 11
-0.3691650000000095
 21
79.351489999999998
  0
LINE
  8
_0-1_レイヤ___1
  6
CONTINUOUS
 62
    7
 10
-0.3691650000000095
 20
79.351489999999998
 11
-1.1732499999999959
 21
81.002380000000002
  0
LINE
  8
_0-1_レイヤ___1
  6
CONTINUOUS
 62
    7
 10
-1.1732499999999959
 20
81.002380000000002
 11
-1.9780240000000049
 21
82.568870000000004
  0
LINE
  8
_0-1_レイヤ___1
  6
CONTINUOUS
 62
    7
 10
-1.9780240000000049
 20
82.568870000000004
 11
-2.8237949999999898
 21
84.135350000000003
  0
LINE
  8
_0-1_レイヤ___1
  6
CONTINUOUS
 62
    7
 10
-2.8237949999999898
 20
84.135350000000003
 11
-3.6709439999999915
 21
85.659120000000001
  0
LINE
  8
_0-1_レイヤ___1
  6
CONTINUOUS
 62
    7
 10
-3.6709439999999915
 20
85.659120000000001
 11
-4.5177490000000091
 21
87.140159999999995
  0
LINE
  8
_0-1_レイヤ___1
  6
CONTINUOUS
 62
    7
 10
-4.5177490000000091
 20
87.140159999999995
 11
-5.4065829999999977
 21
88.580209999999994
  0
LINE
  8
_0-1_レイヤ___1
  6
CONTINUOUS
 62
    7
 10
-5.4065829999999977
 20
88.580209999999994
 11
-6.2537319999999994
 21
90.019580000000005
  0
LINE
  8
_0-1_レイヤ___1
  6
CONTINUOUS
 62
    7
 10
-6.2537319999999994
 20
90.019580000000005
 11
-7.1425669999999997
 21
91.416560000000004
  0
LINE
  8
_0-1_レイヤ___1
  6
CONTINUOUS
 62
    7
 10
-7.1425669999999997
 20
91.416560000000004
 11
-8.0317459999999983
 21
92.812860000000001
  0
LINE
  8
_0-1_レイヤ___1
  6
CONTINUOUS
 62
    7
 10
-8.0317459999999983
 20
92.812860000000001
 11
-8.9626110000000097
 21
94.167820000000006
  0
LINE
  8
_0-1_レイヤ___1
  6
CONTINUOUS
 62
    7
 10
-8.9626110000000097
 20
94.167820000000006
 11
-9.8938200000000052
 21
95.480050000000006
  0
LINE
  8
_0-1_レイヤ___1
  6
CONTINUOUS
 62
    7
 10
-9.8938200000000052
 20
95.480050000000006
 11
-10.78299899999999
 21
96.79298
  0
LINE
  8
_0-1_レイヤ___1
  6
CONTINUOUS
 62
    7
 10
-10.78299899999999
 20
96.79298
 11
-11.713864000000001
 21
98.0625
  0
LINE
  8
_0-1_レイヤ___1
  6
CONTINUOUS
 62
    7
 10
-11.713864000000001
 20
98.0625
 11
-12.646107000000001
 21
99.290330000000012
  0
LINE
  8
_0-1_レイヤ___1
  6
CONTINUOUS
 62
    7
 10
-12.646107000000001
 20
99.290330000000012
 11
-13.619346000000007
 21
100.51815999999999
  0
LINE
  8
_0-1_レイヤ___1
  6
CONTINUOUS
 62
    7
 10
-13.619346000000007
 20
100.51815999999999
 11
-14.550556
 21
101.70293000000001
  0
LINE
  8
_0-1_レイヤ___1
  6
CONTINUOUS
 62
    7
 10
-14.550556
 20
101.70293000000001
 11
-15.524484000000001
 21
102.8467
  0
LINE
  8
_0-1_レイヤ___1
  6
CONTINUOUS
 62
    7
 10
-15.524484000000001
 20
102.8467
 11
-16.455692999999997
 21
103.98944
  0
LINE
  8
_0-1_レイヤ___1
  6
CONTINUOUS
 62
    7
 10
-16.455692999999997
 20
103.98944
 11
-17.429621999999995
 21
105.13252
  0
LINE
  8
_0-1_レイヤ___1
  6
CONTINUOUS
 62
    7
 10
-17.429621999999995
 20
105.13252
 11
-18.360831000000005
 21
106.19085000000001
  0
LINE
  8
_0-1_レイヤ___1
  6
CONTINUOUS
 62
    7
 10
-18.360831000000005
 20
106.19085000000001
 11
-19.334415000000007
 21
107.24919
  0
LINE
  8
_0-1_レイヤ___1
  6
CONTINUOUS
 62
    7
 10
-19.334415000000007
 20
107.24919
 11
-20.266313999999994
 21
108.30682999999999
  0
LINE
  8
_0-1_レイヤ___1
  6
CONTINUOUS
 62
    7
 10
-20.266313999999994
 20
108.30682999999999
 11
-21.239553000000001
 21
109.32312999999999
  0
LINE
  8
_0-1_レイヤ___1
  6
CONTINUOUS
 62
    7
 10
-21.239553000000001
 20
109.32312999999999
 11
-22.212447999999995
 21
110.33944
  0
LINE
  8
_0-1_レイヤ___1
  6
CONTINUOUS
 62
    7
 10
-22.212447999999995
 20
110.33944
 11
-23.144690999999995
 21
111.31268
  0
LINE
  8
_0-1_レイヤ___1
  6
CONTINUOUS
 62
    7
 10
-23.144690999999995
 20
111.31268
 11
-24.07589999999999
 21
112.24458000000001
  0
LINE
  8
_0-1_レイヤ___1
  6
CONTINUOUS
 62
    7
 10
-24.07589999999999
 20
112.24458000000001
 11
-25.048794999999984
 21
113.17578
  0
LINE
  8
_0-1_レイヤ___1
  6
CONTINUOUS
 62
    7
 10
-25.048794999999984
 20
113.17578
 11
-25.981038000000012
 21
114.06461999999999
  0
LINE
  8
_0-1_レイヤ___1
  6
CONTINUOUS
 62
    7
 10
-25.981038000000012
 20
114.06461999999999
 11
-26.912247000000008
 21
114.95345
  0
LINE
  8
_0-1_レイヤ___1
  6
CONTINUOUS
 62
    7
 10
-26.912247000000008
 20
114.95345
 11
-27.843111999999991
 21
115.84263000000001
  0
LINE
  8
_0-1_レイヤ___1
  6
CONTINUOUS
 62
    7
 10
-27.843111999999991
 20
115.84263000000001
 11
-28.774665999999996
 21
116.68978000000001
  0
LINE
  8
_0-1_レイヤ___1
  6
CONTINUOUS
 62
    7
 10
-28.774665999999996
 20
116.68978000000001
 11
-29.663499999999999
 21
117.49351999999999
  0
LINE
  8
_0-1_レイヤ___1
  6
CONTINUOUS
 62
    7
 10
-29.663499999999999
 20
117.49351999999999
 11
-30.595742999999999
 21
118.29830000000001
  0
LINE
  8
_0-1_レイヤ___1
  6
CONTINUOUS
 62
    7
 10
-30.595742999999999
 20
118.29830000000001
 11
-31.484232999999989
 21
119.10238000000001
  0
LINE
  8
_0-1_レイヤ___1
  6
CONTINUOUS
 62
    7
 10
-31.484232999999989
 20
119.10238000000001
 11
-32.373412999999999
 21
119.86409
  0
LINE
  8
_0-1_レイヤ___1
  6
CONTINUOUS
 62
    7
 10
16.77604199999999
 20
404.85307
 11
37.646431000000007
 21
404.85307
  0
LINE
  8
_0-1_レイヤ___1
  6
CONTINUOUS
 62
    7
 10
337.62088
 20
-195.13855000000001
 11
305.10883000000001
 21
-195.13855000000001
  0
LINE
  8
_0-1_レイヤ___1
  6
CONTINUOUS
 62
    7
 10
12.627114000000006
 20
-95.146723000000009
 11
12.627114000000006
 21
-33.720670999999996
  0
LINE
  8
_0-1_レイヤ___1
  6
CONTINUOUS
 62
    7
 10
-32.373412999999999
 20
119.86409
 11
-32.373412999999999
 21
124.85982999999999
  0
LINE
  8
_0-1_レイヤ___1
  6
CONTINUOUS
 62
    7
 10
-32.373412999999999
 20
239.49813
 11
-32.24628899999999
 21
241.23446000000001
  0
LINE
  8
_0-1_レイヤ___1
  6
CONTINUOUS
 62
    7
 10
-32.24628899999999
 20
241.23446000000001
 11
-32.160850000000011
 21
243.01247999999998
  0
LINE
  8
_0-1_レイヤ___1
  6
CONTINUOUS
 62
    7
 10
-32.160850000000011
 20
243.01247999999998
 11
-32.034414999999996
 21
244.83217999999999
  0
LINE
  8
_0-1_レイヤ___1
  6
CONTINUOUS
 62
    7
 10
-32.034414999999996
 20
244.83217999999999
 11
-31.865261000000004
 21
246.65255999999999
  0
LINE
  8
_0-1_レイヤ___1
  6
CONTINUOUS
 62
    7
 10
-31.865261000000004
 20
246.65255999999999
 11
-31.696107000000012
 21
248.55770000000001
  0
LINE
  8
_0-1_レイヤ___1
  6
CONTINUOUS
 62
    7
 10
-31.696107000000012
 20
248.55770000000001
 11
-31.52660800000001
 21
250.46284000000003
  0
LINE
  8
_0-1_レイヤ___1
  6
CONTINUOUS
 62
    7
 10
-31.52660800000001
 20
250.46284000000003
 11
-31.315078999999997
 21
252.41034999999999
  0
LINE
  8
_0-1_レイヤ___1
  6
CONTINUOUS
 62
    7
 10
-31.315078999999997
 20
252.41034999999999
 11
-31.102517000000006
 21
254.3999
  0
LINE
  8
_0-1_レイヤ___1
  6
CONTINUOUS
 62
    7
 10
-31.102517000000006
 20
254.3999
 11
-30.84895800000001
 21
256.43146999999999
  0
LINE
  8
_0-1_レイヤ___1
  6
CONTINUOUS
 62
    7
 10
-30.84895800000001
 20
256.43146999999999
 11
-30.595742999999999
 21
258.46406999999999
  0
LINE
  8
_0-1_レイヤ___1
  6
CONTINUOUS
 62
    7
 10
-30.595742999999999
 20
258.46406999999999
 11
-30.340805999999986
 21
260.53802000000002
  0
LINE
  8
_0-1_レイヤ___1
  6
CONTINUOUS
 62
    7
 10
-30.340805999999986
 20
260.53802000000002
 11
-30.045217000000008
 21
262.65469000000002
  0
LINE
  8
_0-1_レイヤ___1
  6
CONTINUOUS
 62
    7
 10
-30.045217000000008
 20
262.65469000000002
 11
-29.748593999999997
 21
264.81373000000002
  0
LINE
  8
_0-1_レイヤ___1
  6
CONTINUOUS
 62
    7
 10
-29.748593999999997
 20
264.81373000000002
 11
-29.409941000000003
 21
267.01515000000001
  0
LINE
  8
_0-1_レイヤ___1
  6
CONTINUOUS
 62
    7
 10
-29.409941000000003
 20
267.01515000000001
 11
-29.070943999999997
 21
269.21622000000002
  0
LINE
  8
_0-1_レイヤ___1
  6
CONTINUOUS
 62
    7
 10
-29.070943999999997
 20
269.21622000000002
 11
-28.690260999999992
 21
271.41798
  0
LINE
  8
_0-1_レイヤ___1
  6
CONTINUOUS
 62
    7
 10
-28.690260999999992
 20
271.41798
 11
-28.309233000000006
 21
273.70344999999998
  0
LINE
  8
_0-1_レイヤ___1
  6
CONTINUOUS
 62
    7
 10
-28.309233000000006
 20
273.70344999999998
 11
-27.928205999999989
 21
275.98962
  0
LINE
  8
_0-1_レイヤ___1
  6
CONTINUOUS
 62
    7
 10
-27.928205999999989
 20
275.98962
 11
-27.504458999999997
 21
278.31781999999998
  0
LINE
  8
_0-1_レイヤ___1
  6
CONTINUOUS
 62
    7
 10
-27.504458999999997
 20
278.31781999999998
 11
-27.08174600000001
 21
280.64636000000002
  0
LINE
  8
_0-1_レイヤ___1
  6
CONTINUOUS
 62
    7
 10
-27.08174600000001
 20
280.64636000000002
 11
-26.615623999999997
 21
283.01727
  0
LINE
  8
_0-1_レイヤ___1
  6
CONTINUOUS
 62
    7
 10
-26.615623999999997
 20
283.01727
 11
-26.150192000000004
 21
285.38749999999999
  0
LINE
  8
_0-1_レイヤ___1
  6
CONTINUOUS
 62
    7
 10
-26.150192000000004
 20
285.38749999999999
 11
-25.64238499999999
 21
287.80113
  0
LINE
  8
_0-1_レイヤ___1
  6
CONTINUOUS
 62
    7
 10
-25.64238499999999
 20
287.80113
 11
-25.134232999999995
 21
290.2561
  0
LINE
  8
_0-1_レイヤ___1
  6
CONTINUOUS
 62
    7
 10
-25.134232999999995
 20
290.2561
 11
-24.584051999999986
 21
292.66905000000003
  0
LINE
  8
_0-1_レイヤ___1
  6
CONTINUOUS
 62
    7
 10
-24.584051999999986
 20
292.66905000000003
 11
-24.033524999999997
 21
295.16674
  0
LINE
  8
_0-1_レイヤ___1
  6
CONTINUOUS
 62
    7
 10
-24.033524999999997
 20
295.16674
 11
-23.483343999999988
 21
297.66444000000001
  0
LINE
  8
_0-1_レイヤ___1
  6
CONTINUOUS
 62
    7
 10
-23.483343999999988
 20
297.66444000000001
 11
-22.890097999999995
 21
300.16179
  0
LINE
  8
_0-1_レイヤ___1
  6
CONTINUOUS
 62
    7
 10
-22.890097999999995
 20
300.16179
 11
-22.255511999999996
 21
302.70186000000001
  0
LINE
  8
_0-1_レイヤ___1
  6
CONTINUOUS
 62
    7
 10
-22.255511999999996
 20
302.70186000000001
 11
-21.620236000000006
 21
305.24227000000002
  0
LINE
  8
_0-1_レイヤ___1
  6
CONTINUOUS
 62
    7
 10
-21.620236000000006
 20
305.24227000000002
 11
-20.985994000000005
 21
307.82436999999999
  0
LINE
  8
_0-1_レイヤ___1
  6
CONTINUOUS
 62
    7
 10
-20.985994000000005
 20
307.82436999999999
 11
-20.308344000000005
 21
310.40681000000001
  0
LINE
  8
_0-1_レイヤ___1
  6
CONTINUOUS
 62
    7
 10
37.646431000000007
 20
404.85307
 11
37.646431000000007
 21
380.21427
  0
LINE
  8
_0-1_レイヤ___1
  6
CONTINUOUS
 62
    7
 10
175.14501000000001
 20
-155.13341
 11
305.10883000000001
 21
-155.13341
  0
LINE
  8
_0-1_レイヤ___1
  6
CONTINUOUS
 62
    7
 10
305.10883000000001
 20
-155.13341
 11
305.10883000000001
 21
-195.13855000000001
  0
LINE
  8
_0-1_レイヤ___1
  6
CONTINUOUS
 62
    7
 10
175.14501000000001
 20
-155.13341
 11
305.10883000000001
 21
-155.13341
  0
LINE
  8
_0-1_レイヤ___1
  6
CONTINUOUS
 62
    7
 10
305.10883000000001
 20
-155.13341
 11
305.10883000000001
 21
-195.13855000000001
  0
LINE
  8
_0-1_レイヤ___1
  6
CONTINUOUS
 62
    7
 10
175.14501000000001
 20
-155.13341
 11
45.139168999999995
 21
-155.13341
  0
LINE
  8
_0-1_レイヤ___1
  6
CONTINUOUS
 62
    7
 10
45.139168999999995
 20
-155.13341
 11
45.139168999999995
 21
-195.13855000000001
  0
LINE
  8
_0-1_レイヤ___1
  6
CONTINUOUS
 62
    7
 10
175.14501000000001
 20
-155.13341
 11
45.139168999999995
 21
-155.13341
  0
LINE
  8
_0-1_レイヤ___1
  6
CONTINUOUS
 62
    7
 10
45.139168999999995
 20
-155.13341
 11
45.139168999999995
 21
-195.13855000000001
  0
LINE
  8
_0-1_レイヤ___1
  6
CONTINUOUS
 62
    7
 10
45.139168999999995
 20
-195.13855000000001
 11
15.632615000000001
 21
-195.13855000000001
  0
LINE
  8
_0-1_レイヤ___1
  6
CONTINUOUS
 62
    7
 10
37.646431000000007
 20
127.52701999999999
 11
34.640585000000002
 21
127.52701999999999
  0
LINE
  8
_0-1_レイヤ___1
  6
CONTINUOUS
 62
    7
 10
34.640585000000002
 20
127.52701999999999
 11
34.640585000000002
 21
87.521879999999996
  0
LINE
  8
_0-1_レイヤ___1
  6
CONTINUOUS
 62
    7
 10
34.640585000000002
 20
87.521879999999996
 11
37.646431000000007
 21
87.521879999999996
  0
LINE
  8
_0-1_レイヤ___1
  6
CONTINUOUS
 62
    7
 10
37.646431000000007
 20
87.521879999999996
 11
37.646431000000007
 21
127.52701999999999
  0
LINE
  8
_0-1_レイヤ___1
  6
CONTINUOUS
 62
    7
 10
37.646431000000007
 20
-125.11905400000001
 11
34.640585000000002
 21
-125.11905400000001
  0
LINE
  8
_0-1_レイヤ___1
  6
CONTINUOUS
 62
    7
 10
34.640585000000002
 20
-125.11905400000001
 11
34.640585000000002
 21
-165.12419
  0
LINE
  8
_0-1_レイヤ___1
  6
CONTINUOUS
 62
    7
 10
34.640585000000002
 20
-165.12419
 11
37.646431000000007
 21
-165.12419
  0
LINE
  8
_0-1_レイヤ___1
  6
CONTINUOUS
 62
    7
 10
37.646431000000007
 20
-165.12419
 11
37.646431000000007
 21
-125.11905400000001
  0
LINE
  8
_0-1_レイヤ___1
  6
CONTINUOUS
 62
    7
 10
37.646431000000007
 20
380.21427
 11
34.640585000000002
 21
380.21427
  0
LINE
  8
_0-1_レイヤ___1
  6
CONTINUOUS
 62
    7
 10
34.640585000000002
 20
380.21427
 11
34.640585000000002
 21
340.20929999999998
  0
LINE
  8
_0-1_レイヤ___1
  6
CONTINUOUS
 62
    7
 10
34.640585000000002
 20
340.20929999999998
 11
37.646431000000007
 21
340.20929999999998
  0
LINE
  8
_0-1_レイヤ___1
  6
CONTINUOUS
 62
    7
 10
37.646431000000007
 20
340.20929999999998
 11
37.646431000000007
 21
240.38731000000001
  0
LINE
  8
_0-1_レイヤ___1
  6
CONTINUOUS
 62
    7
 10
-29.367567000000008
 20
124.85982999999999
 11
-29.367567000000008
 21
134.85059999999999
  0
LINE
  8
_0-1_レイヤ___1
  6
CONTINUOUS
 62
    7
 10
-29.367567000000008
 20
134.85059999999999
 11
-32.373412999999999
 21
134.85059999999999
  0
LINE
  8
_0-1_レイヤ___1
  6
CONTINUOUS
 62
    7
 10
-32.373412999999999
 20
124.85982999999999
 11
-29.367567000000008
 21
124.85982999999999
  0
LINE
  8
_0-1_レイヤ___1
  6
CONTINUOUS
 62
    7
 10
-32.373412999999999
 20
134.85059999999999
 11
-32.373412999999999
 21
224.51266000000001
  0
LINE
  8
_0-1_レイヤ___1
  6
CONTINUOUS
 62
    7
 10
-32.373412999999999
 20
224.51266000000001
 11
-29.367567000000008
 21
224.51266000000001
  0
LINE
  8
_0-1_レイヤ___1
  6
CONTINUOUS
 62
    7
 10
-32.373412999999999
 20
234.50308999999999
 11
-29.367567000000008
 21
234.50308999999999
  0
LINE
  8
_0-1_レイヤ___1
  6
CONTINUOUS
 62
    7
 10
-29.367567000000008
 20
234.50308999999999
 11
-29.367567000000008
 21
224.51266000000001
  0
LINE
  8
_0-1_レイヤ___1
  6
CONTINUOUS
 62
    7
 10
-32.373412999999999
 20
234.50308999999999
 11
-32.373412999999999
 21
239.49813
  0
LINE
  8
_0-1_レイヤ___1
  6
CONTINUOUS
 62
    7
 10
14.405126999999993
 20
400.44990000000001
 11
17.071976000000006
 21
399.09494000000001
  0
LINE
  8
_0-1_レイヤ___1
  6
CONTINUOUS
 62
    7
 10
9.8334859999999935
 20
391.56
 11
12.500334000000009
 21
390.16266999999999
  0
LINE
  8
_0-1_レイヤ___1
  6
CONTINUOUS
 62
    7
 10
12.500334000000009
 20
390.16266999999999
 11
17.071976000000006
 21
399.09494000000001
  0
LINE
  8
_0-1_レイヤ___1
  6
CONTINUOUS
 62
    7
 10
14.405126999999993
 20
400.44990000000001
 11
15.590585000000004
 21
402.65096999999997
  0
LINE
  8
_0-1_レイヤ___1
  6
CONTINUOUS
 62
    7
 10
15.590585000000004
 20
402.65096999999997
 11
16.77604199999999
 21
404.85307
  0
LINE
  8
_0-1_レイヤ___1
  6
CONTINUOUS
 62
    7
 10
-32.373412999999999
 20
234.50308999999999
 11
-32.373412999999999
 21
239.49813
  0
LINE
  8
_0-1_レイヤ___1
  6
CONTINUOUS
 62
    7
 10
-14.762772999999996
 20
319.25382000000002
 11
-17.386903000000004
 21
309.60237999999998
  0
LINE
  8
_0-1_レイヤ___1
  6
CONTINUOUS
 62
    7
 10
-17.386903000000004
 20
309.60237999999998
 11
-20.308344000000005
 21
310.40681000000001
  0
LINE
  8
_0-1_レイヤ___1
  6
CONTINUOUS
 62
    7
 10
-14.762772999999996
 20
319.25382000000002
 11
-17.641151000000008
 21
320.01656000000003
  0
LINE
  8
_0-1_レイヤ___1
  6
CONTINUOUS
 62
    7
 10
-17.641151000000008
 20
320.01656000000003
 11
-17.005875000000003
 21
322.21762999999999
  0
LINE
  8
_0-1_レイヤ___1
  6
CONTINUOUS
 62
    7
 10
-17.005875000000003
 20
322.21762999999999
 11
-16.371289000000004
 21
324.41973999999999
  0
LINE
  8
_0-1_レイヤ___1
  6
CONTINUOUS
 62
    7
 10
-16.371289000000004
 20
324.41973999999999
 11
-15.693983000000003
 21
326.62081000000001
  0
LINE
  8
_0-1_レイヤ___1
  6
CONTINUOUS
 62
    7
 10
-15.693983000000003
 20
326.62081000000001
 11
-15.058706999999998
 21
328.82154000000003
  0
LINE
  8
_0-1_レイヤ___1
  6
CONTINUOUS
 62
    7
 10
-15.058706999999998
 20
328.82154000000003
 11
-14.339027000000002
 21
331.02330000000001
  0
LINE
  8
_0-1_レイヤ___1
  6
CONTINUOUS
 62
    7
 10
-14.339027000000002
 20
331.02330000000001
 11
-13.661721
 21
333.22471000000002
  0
LINE
  8
_0-1_レイヤ___1
  6
CONTINUOUS
 62
    7
 10
-13.661721
 20
333.22471000000002
 11
-12.942039999999992
 21
335.46816000000001
  0
LINE
  8
_0-1_レイヤ___1
  6
CONTINUOUS
 62
    7
 10
-12.942039999999992
 20
335.46816000000001
 11
-12.179985000000002
 21
337.66958
  0
LINE
  8
_0-1_レイヤ___1
  6
CONTINUOUS
 62
    7
 10
-12.179985000000002
 20
337.66958
 11
-11.460305000000005
 21
339.91370999999998
  0
LINE
  8
_0-1_レイヤ___1
  6
CONTINUOUS
 62
    7
 10
-11.460305000000005
 20
339.91370999999998
 11
-10.698594
 21
342.15647000000001
  0
LINE
  8
_0-1_レイヤ___1
  6
CONTINUOUS
 62
    7
 10
-10.698594
 20
342.15647000000001
 11
-9.9358500000000021
 21
344.4006
  0
LINE
  8
_0-1_レイヤ___1
  6
CONTINUOUS
 62
    7
 10
-9.9358500000000021
 20
344.4006
 11
-9.1321089999999998
 21
346.64404999999999
  0
LINE
  8
_0-1_レイヤ___1
  6
CONTINUOUS
 62
    7
 10
-9.1321089999999998
 20
346.64404999999999
 11
-8.327335000000005
 21
348.88749999999999
  0
LINE
  8
_0-1_レイヤ___1
  6
CONTINUOUS
 62
    7
 10
-8.327335000000005
 20
348.88749999999999
 11
-7.5235940000000028
 21
351.13162999999997
  0
LINE
  8
_0-1_レイヤ___1
  6
CONTINUOUS
 62
    7
 10
-7.5235940000000028
 20
351.13162999999997
 11
-6.6764450000000011
 21
353.37490000000003
  0
LINE
  8
_0-1_レイヤ___1
  6
CONTINUOUS
 62
    7
 10
-6.6764450000000011
 20
353.37490000000003
 11
-5.8296410000000094
 21
355.61903999999998
  0
LINE
  8
_0-1_レイヤ___1
  6
CONTINUOUS
 62
    7
 10
-5.8296410000000094
 20
355.61903999999998
 11
-4.9408060000000091
 21
357.90503000000001
  0
LINE
  8
_0-1_レイヤ___1
  6
CONTINUOUS
 62
    7
 10
-4.9408060000000091
 20
357.90503000000001
 11
-4.0946909999999974
 21
360.14830999999998
  0
LINE
  8
_0-1_レイヤ___1
  6
CONTINUOUS
 62
    7
 10
-4.0946909999999974
 20
360.14830999999998
 11
-3.2055119999999988
 21
362.39227
  0
LINE
  8
_0-1_レイヤ___1
  6
CONTINUOUS
 62
    7
 10
-3.2055119999999988
 20
362.39227
 11
-2.2739579999999933
 21
364.63605999999999
  0
LINE
  8
_0-1_レイヤ___1
  6
CONTINUOUS
 62
    7
 10
-2.2739579999999933
 20
364.63605999999999
 11
-1.3427489999999977
 21
366.92153999999999
  0
LINE
  8
_0-1_レイヤ___1
  6
CONTINUOUS
 62
    7
 10
-1.3427489999999977
 20
366.92153999999999
 11
-0.4115390000000047
 21
369.16566999999998
  0
LINE
  8
_0-1_レイヤ___1
  6
CONTINUOUS
 62
    7
 10
-0.4115390000000047
 20
369.16566999999998
 11
0.5196699999999907
 21
371.40929
  0
LINE
  8
_0-1_レイヤ___1
  6
CONTINUOUS
 62
    7
 10
0.5196699999999907
 20
371.40929
 11
1.4939430000000016
 21
373.65255999999999
  0
LINE
  8
_0-1_レイヤ___1
  6
CONTINUOUS
 62
    7
 10
1.4939430000000016
 20
373.65255999999999
 11
2.5102459999999951
 21
375.89670000000001
  0
LINE
  8
_0-1_レイヤ___1
  6
CONTINUOUS
 62
    7
 10
2.5102459999999951
 20
375.89670000000001
 11
3.4834859999999992
 21
378.14066000000003
  0
LINE
  8
_0-1_レイヤ___1
  6
CONTINUOUS
 62
    7
 10
3.4834859999999992
 20
378.14066000000003
 11
4.4994439999999969
 21
380.38359000000003
  0
LINE
  8
_0-1_レイヤ___1
  6
CONTINUOUS
 62
    7
 10
4.4994439999999969
 20
380.38359000000003
 11
5.557777999999999
 21
382.62772999999999
  0
LINE
  8
_0-1_レイヤ___1
  6
CONTINUOUS
 62
    7
 10
5.557777999999999
 20
382.62772999999999
 11
6.5733919999999983
 21
384.87099999999998
  0
LINE
  8
_0-1_レイヤ___1
  6
CONTINUOUS
 62
    7
 10
6.5733919999999983
 20
384.87099999999998
 11
7.6747890000000041
 21
387.11496
  0
LINE
  8
_0-1_レイヤ___1
  6
CONTINUOUS
 62
    7
 10
7.6747890000000041
 20
387.11496
 11
8.7331220000000087
 21
389.31603999999999
  0
LINE
  8
_0-1_レイヤ___1
  6
CONTINUOUS
 62
    7
 10
8.7331220000000087
 20
389.31603999999999
 11
9.8334859999999935
 21
391.56
  0
LINE
  8
_0-1_レイヤ___1
  6
CONTINUOUS
 62
    7
 10
315.60741000000002
 20
127.52701999999999
 11
312.64393999999999
 21
127.52701999999999
  0
LINE
  8
_0-1_レイヤ___1
  6
CONTINUOUS
 62
    7
 10
312.64393999999999
 20
127.52701999999999
 11
312.64393999999999
 21
87.521879999999996
  0
LINE
  8
_0-1_レイヤ___1
  6
CONTINUOUS
 62
    7
 10
312.64393999999999
 20
87.521879999999996
 11
315.60741000000002
 21
87.521879999999996
  0
LINE
  8
_0-1_レイヤ___1
  6
CONTINUOUS
 62
    7
 10
315.60741000000002
 20
87.521879999999996
 11
315.60741000000002
 21
127.52701999999999
  0
LINE
  8
_0-1_レイヤ___1
  6
CONTINUOUS
 62
    7
 10
315.60741000000002
 20
-125.11905400000001
 11
312.64393999999999
 21
-125.11905400000001
  0
LINE
  8
_0-1_レイヤ___1
  6
CONTINUOUS
 62
    7
 10
312.64393999999999
 20
-125.11905400000001
 11
312.64393999999999
 21
-165.12419
  0
LINE
  8
_0-1_レイヤ___1
  6
CONTINUOUS
 62
    7
 10
312.64393999999999
 20
-165.12419
 11
315.60741000000002
 21
-165.12419
  0
LINE
  8
_0-1_レイヤ___1
  6
CONTINUOUS
 62
    7
 10
315.60741000000002
 20
-165.12419
 11
315.60741000000002
 21
-125.11905400000001
  0
LINE
  8
_0-1_レイヤ___1
  6
CONTINUOUS
 62
    7
 10
382.62106
 20
134.85059999999999
 11
382.62106
 21
224.51266000000001
  0
LINE
  8
_0-1_レイヤ___1
  6
CONTINUOUS
 62
    7
 10
382.62106
 20
119.86409
 11
382.62106
 21
124.85982999999999
  0
LINE
  8
_0-1_レイヤ___1
  6
CONTINUOUS
 62
    7
 10
382.62106
 20
124.85982999999999
 11
379.61556000000002
 21
124.85982999999999
  0
LINE
  8
_0-1_レイヤ___1
  6
CONTINUOUS
 62
    7
 10
382.62106
 20
134.85059999999999
 11
379.61556000000002
 21
134.85059999999999
  0
LINE
  8
_0-1_レイヤ___1
  6
CONTINUOUS
 62
    7
 10
379.61556000000002
 20
134.85059999999999
 11
379.61556000000002
 21
124.85982999999999
  0
LINE
  8
_0-1_レイヤ___1
  6
CONTINUOUS
 62
    7
 10
382.62106
 20
239.49813
 11
382.40919000000002
 21
243.01247999999998
  0
LINE
  8
_0-1_レイヤ___1
  6
CONTINUOUS
 62
    7
 10
382.40919000000002
 20
243.01247999999998
 11
382.11291
 21
246.65255999999999
  0
LINE
  8
_0-1_レイヤ___1
  6
CONTINUOUS
 62
    7
 10
382.11291
 20
246.65255999999999
 11
381.77460000000002
 21
250.46284000000003
  0
LINE
  8
_0-1_レイヤ___1
  6
CONTINUOUS
 62
    7
 10
381.77460000000002
 20
250.46284000000003
 11
381.35086000000001
 21
254.3999
  0
LINE
  8
_0-1_レイヤ___1
  6
CONTINUOUS
 62
    7
 10
381.35086000000001
 20
254.3999
 11
380.88542000000001
 21
258.46406999999999
  0
LINE
  8
_0-1_レイヤ___1
  6
CONTINUOUS
 62
    7
 10
380.88542000000001
 20
258.46406999999999
 11
380.29217999999997
 21
262.65469000000002
  0
LINE
  8
_0-1_レイヤ___1
  6
CONTINUOUS
 62
    7
 10
380.29217999999997
 20
262.65469000000002
 11
379.65794
 21
267.01515000000001
  0
LINE
  8
_0-1_レイヤ___1
  6
CONTINUOUS
 62
    7
 10
379.65794
 20
267.01515000000001
 11
378.97994
 21
271.41798
  0
LINE
  8
_0-1_レイヤ___1
  6
CONTINUOUS
 62
    7
 10
378.97994
 20
271.41798
 11
378.17653999999999
 21
275.98962
  0
LINE
  8
_0-1_レイヤ___1
  6
CONTINUOUS
 62
    7
 10
378.17653999999999
 20
275.98962
 11
377.32940000000002
 21
280.64636000000002
  0
LINE
  8
_0-1_レイヤ___1
  6
CONTINUOUS
 62
    7
 10
377.32940000000002
 20
280.64636000000002
 11
376.39819
 21
285.38749999999999
  0
LINE
  8
_0-1_レイヤ___1
  6
CONTINUOUS
 62
    7
 10
376.39819
 20
285.38749999999999
 11
375.38222999999999
 21
290.2561
  0
LINE
  8
_0-1_レイヤ___1
  6
CONTINUOUS
 62
    7
 10
375.38222999999999
 20
290.2561
 11
374.28152
 21
295.16674
  0
LINE
  8
_0-1_レイヤ___1
  6
CONTINUOUS
 62
    7
 10
374.28152
 20
295.16674
 11
373.13808999999998
 21
300.16179
  0
LINE
  8
_0-1_レイヤ___1
  6
CONTINUOUS
 62
    7
 10
373.13808999999998
 20
300.16179
 11
371.86788999999999
 21
305.24227000000002
  0
LINE
  8
_0-1_レイヤ___1
  6
CONTINUOUS
 62
    7
 10
371.86788999999999
 20
305.24227000000002
 11
370.55599000000001
 21
310.40681000000001
  0
LINE
  8
_0-1_レイヤ___1
  6
CONTINUOUS
 62
    7
 10
365.01042000000001
 20
319.25382000000002
 11
367.67795999999998
 21
309.60237999999998
  0
LINE
  8
_0-1_レイヤ___1
  6
CONTINUOUS
 62
    7
 10
367.67795999999998
 20
309.60237999999998
 11
370.55599000000001
 21
310.40681000000001
  0
LINE
  8
_0-1_レイヤ___1
  6
CONTINUOUS
 62
    7
 10
365.01042000000001
 20
319.25382000000002
 11
367.93151999999998
 21
320.01656000000003
  0
LINE
  8
_0-1_レイヤ___1
  6
CONTINUOUS
 62
    7
 10
379.61556000000002
 20
234.50308999999999
 11
379.61556000000002
 21
224.51266000000001
  0
LINE
  8
_0-1_レイヤ___1
  6
CONTINUOUS
 62
    7
 10
379.61556000000002
 20
224.51266000000001
 11
382.62106
 21
224.51266000000001
  0
LINE
  8
_0-1_レイヤ___1
  6
CONTINUOUS
 62
    7
 10
382.62106
 20
234.50308999999999
 11
382.62106
 21
239.49813
  0
LINE
  8
_0-1_レイヤ___1
  6
CONTINUOUS
 62
    7
 10
382.62106
 20
239.49813
 11
382.62106
 21
234.50308999999999
  0
LINE
  8
_0-1_レイヤ___1
  6
CONTINUOUS
 62
    7
 10
382.62106
 20
234.50308999999999
 11
379.61556000000002
 21
234.50308999999999
  0
LINE
  8
_0-1_レイヤ___1
  6
CONTINUOUS
 62
    7
 10
367.93151999999998
 20
320.01656000000003
 11
365.30635999999998
 21
328.82154000000003
  0
LINE
  8
_0-1_レイヤ___1
  6
CONTINUOUS
 62
    7
 10
365.30635999999998
 20
328.82154000000003
 11
362.47001
 21
337.66958
  0
LINE
  8
_0-1_レイヤ___1
  6
CONTINUOUS
 62
    7
 10
362.47001
 20
337.66958
 11
359.38010000000003
 21
346.64404999999999
  0
LINE
  8
_0-1_レイヤ___1
  6
CONTINUOUS
 62
    7
 10
359.38010000000003
 20
346.64404999999999
 11
356.07763999999997
 21
355.61903999999998
  0
LINE
  8
_0-1_レイヤ___1
  6
CONTINUOUS
 62
    7
 10
356.07763999999997
 20
355.61903999999998
 11
352.52161000000001
 21
364.63605999999999
  0
LINE
  8
_0-1_レイヤ___1
  6
CONTINUOUS
 62
    7
 10
352.52161000000001
 20
364.63605999999999
 11
348.75405000000001
 21
373.65255999999999
  0
LINE
  8
_0-1_レイヤ___1
  6
CONTINUOUS
 62
    7
 10
348.75405000000001
 20
373.65255999999999
 11
344.73293999999999
 21
382.62772999999999
  0
LINE
  8
_0-1_レイヤ___1
  6
CONTINUOUS
 62
    7
 10
344.73293999999999
 20
382.62772999999999
 11
340.41451000000001
 21
391.56
  0
LINE
  8
_0-1_レイヤ___1
  6
CONTINUOUS
 62
    7
 10
333.17567000000003
 20
399.09494000000001
 11
337.74732
 21
390.16266999999999
  0
LINE
  8
_0-1_レイヤ___1
  6
CONTINUOUS
 62
    7
 10
337.74732
 20
390.16266999999999
 11
340.41451000000001
 21
391.56
  0
LINE
  8
_0-1_レイヤ___1
  6
CONTINUOUS
 62
    7
 10
333.47161
 20
404.85307
 11
335.84321
 21
400.44990000000001
  0
LINE
  8
_0-1_レイヤ___1
  6
CONTINUOUS
 62
    7
 10
335.84321
 20
400.44990000000001
 11
333.17567000000003
 21
399.09494000000001
  0
LINE
  8
_0-1_レイヤ___1
  6
CONTINUOUS
 62
    7
 10
15.632615000000001
 20
-195.13855000000001
 11
15.632615000000001
 21
-185.14707999999996
  0
LINE
  8
_0-1_レイヤ___1
  6
CONTINUOUS
 62
    7
 10
15.632615000000001
 20
-185.14707999999996
 11
12.627114000000006
 21
-185.14707999999996
  0
LINE
  8
_0-1_レイヤ___1
  6
CONTINUOUS
 62
    7
 10
12.627114000000006
 20
-185.14707999999996
 11
12.627114000000006
 21
-195.13855000000001
  0
LINE
  8
_0-1_レイヤ___1
  6
CONTINUOUS
 62
    7
 10
12.627114000000006
 20
-33.720670999999996
 11
15.632615000000001
 21
-33.720670999999996
  0
LINE
  8
_0-1_レイヤ___1
  6
CONTINUOUS
 62
    7
 10
15.632615000000001
 20
-23.730582999999996
 11
12.627114000000006
 21
-23.730582999999996
  0
LINE
  8
_0-1_レイヤ___1
  6
CONTINUOUS
 62
    7
 10
15.632615000000001
 20
115.8006
 11
12.627114000000006
 21
115.8006
  0
LINE
  8
_0-1_レイヤ___1
  6
CONTINUOUS
 62
    7
 10
15.632615000000001
 20
105.80914000000001
 11
12.627114000000006
 21
105.80914000000001
  0
LINE
  8
_0-1_レイヤ___1
  6
CONTINUOUS
 62
    7
 10
12.627114000000006
 20
105.80914000000001
 11
12.627114000000006
 21
115.8006
  0
LINE
  8
_0-1_レイヤ___1
  6
CONTINUOUS
 62
    7
 10
15.632615000000001
 20
-33.720670999999996
 11
15.632615000000001
 21
-23.730582999999996
  0
LINE
  8
_0-1_レイヤ___1
  6
CONTINUOUS
 62
    7
 10
15.632615000000001
 20
105.80914000000001
 11
15.632615000000001
 21
115.8006
  0
LINE
  8
_0-1_レイヤ___1
  6
CONTINUOUS
 62
    7
 10
12.627114000000006
 20
-23.730582999999996
 11
12.627114000000006
 21
17.671886000000001
  0
LINE
  8
_0-1_レイヤ___1
  6
CONTINUOUS
 62
    7
 10
337.62088
 20
-185.14707999999996
 11
337.62088
 21
-195.13855000000001
  0
LINE
  8
_0-1_レイヤ___1
  6
CONTINUOUS
 62
    7
 10
334.61504000000002
 20
-195.13855000000001
 11
334.61504000000002
 21
-185.14707999999996
  0
LINE
  8
_0-1_レイヤ___1
  6
CONTINUOUS
 62
    7
 10
334.61504000000002
 20
-185.14707999999996
 11
337.62088
 21
-185.14707999999996
  0
LINE
  8
_0-1_レイヤ___1
  6
CONTINUOUS
 62
    7
 10
334.61504000000002
 20
105.80914000000001
 11
334.61504000000002
 21
115.8006
  0
LINE
  8
_0-1_レイヤ___1
  6
CONTINUOUS
 62
    7
 10
337.62088
 20
115.8006
 11
337.62088
 21
105.80914000000001
  0
LINE
  8
_0-1_レイヤ___1
  6
CONTINUOUS
 62
    7
 10
337.62088
 20
105.80914000000001
 11
334.61504000000002
 21
105.80914000000001
  0
LINE
  8
_0-1_レイヤ___1
  6
CONTINUOUS
 62
    7
 10
334.61504000000002
 20
115.8006
 11
337.62088
 21
115.8006
  0
LINE
  8
_0-1_レイヤ___1
  6
CONTINUOUS
 62
    7
 10
334.61504000000002
 20
-33.720670999999996
 11
334.61504000000002
 21
-23.730582999999996
  0
LINE
  8
_0-1_レイヤ___1
  6
CONTINUOUS
 62
    7
 10
334.61504000000002
 20
-23.730582999999996
 11
337.62088
 21
-23.730582999999996
  0
LINE
  8
_0-1_レイヤ___1
  6
CONTINUOUS
 62
    7
 10
334.61504000000002
 20
-33.720670999999996
 11
337.62088
 21
-33.720670999999996
  0
LINE
  8
_0-1_レイヤ___1
  6
CONTINUOUS
 62
    7
 10
337.62088
 20
-33.720670999999996
 11
337.62088
 21
-95.146723000000009
  0
LINE
  8
_0-1_レイヤ___1
  6
CONTINUOUS
 62
    7
 10
7.631725000000003
 20
122.86958999999999
 11
-2.3590519999999913
 21
122.86958999999999
  0
LINE
  8
_0-1_レイヤ___1
  6
CONTINUOUS
 62
    7
 10
-2.3590519999999913
 20
119.86409
 11
7.631725000000003
 21
119.86409
  0
LINE
  8
_0-1_レイヤ___1
  6
CONTINUOUS
 62
    7
 10
7.631725000000003
 20
119.86409
 11
7.631725000000003
 21
122.86958999999999
  0
LINE
  8
_0-1_レイヤ___1
  6
CONTINUOUS
 62
    7
 10
-2.3590519999999913
 20
122.86958999999999
 11
-2.3590519999999913
 21
119.86409
  0
LINE
  8
_0-0_0
  6
CONTINUOUS
 62
    7
 10
315.64393999999999
 20
340.20929999999998
 11
315.64393999999999
 21
380.21427
  0
LINE
  8
_0-0_0
  6
CONTINUOUS
 62
    7
 10
312.64393999999999
 20
340.20929999999998
 11
315.64393999999999
 21
340.20929999999998
  0
LINE
  8
_0-1_レイヤ___1
  6
CONTINUOUS
 62
    7
 10
312.64393999999999
 20
404.85307
 11
333.47161
 21
404.85307
  0
LINE
  8
_0-1_レイヤ___1
  6
CONTINUOUS
 62
    7
 10
312.64393999999999
 20
380.21427
 11
312.64393999999999
 21
404.85307
  0
LINE
  8
_0-1_レイヤ___1
  6
CONTINUOUS
 62
    7
 10
37.646431000000007
 20
240.38731000000001
 11
37.646431000000007
 21
236.78926000000001
  0
LINE
  8
_0-1_レイヤ___1
  6
CONTINUOUS
 62
    7
 10
37.646431000000007
 20
236.78926000000001
 11
37.688461000000004
 21
235.90042
  0
LINE
  8
_0-1_レイヤ___1
  6
CONTINUOUS
 62
    7
 10
37.688461000000004
 20
235.90042
 11
37.688461000000004
 21
235.05327
  0
LINE
  8
_0-1_レイヤ___1
  6
CONTINUOUS
 62
    7
 10
37.688461000000004
 20
235.05327
 11
37.731523999999993
 21
234.20647000000002
  0
LINE
  8
_0-1_レイヤ___1
  6
CONTINUOUS
 62
    7
 10
37.731523999999993
 20
234.20647000000002
 11
37.773555000000002
 21
233.36034999999998
  0
LINE
  8
_0-1_レイヤ___1
  6
CONTINUOUS
 62
    7
 10
37.773555000000002
 20
233.36034999999998
 11
37.815584999999999
 21
232.55558000000002
  0
LINE
  8
_0-1_レイヤ___1
  6
CONTINUOUS
 62
    7
 10
37.815584999999999
 20
232.55558000000002
 11
37.857614999999996
 21
231.75184000000002
  0
LINE
  8
_0-1_レイヤ___1
  6
CONTINUOUS
 62
    7
 10
37.857614999999996
 20
231.75184000000002
 11
37.899990000000003
 21
230.94706000000002
  0
LINE
  8
_0-1_レイヤ___1
  6
CONTINUOUS
 62
    7
 10
37.899990000000003
 20
230.94706000000002
 11
37.942708999999994
 21
230.14229
  0
LINE
  8
_0-1_レイヤ___1
  6
CONTINUOUS
 62
    7
 10
37.942708999999994
 20
230.14229
 11
37.985084000000001
 21
229.38058000000001
  0
LINE
  8
_0-1_レイヤ___1
  6
CONTINUOUS
 62
    7
 10
37.985084000000001
 20
229.38058000000001
 11
38.027113999999997
 21
228.57648999999998
  0
LINE
  8
_0-1_レイヤ___1
  6
CONTINUOUS
 62
    7
 10
38.027113999999997
 20
228.57648999999998
 11
38.112207999999995
 21
227.85681
  0
LINE
  8
_0-1_レイヤ___1
  6
CONTINUOUS
 62
    7
 10
38.112207999999995
 20
227.85681
 11
38.154582000000005
 21
227.09476000000001
  0
LINE
  8
_0-1_レイヤ___1
  6
CONTINUOUS
 62
    7
 10
38.154582000000005
 20
227.09476000000001
 11
38.238642999999996
 21
226.33269999999999
  0
LINE
  8
_0-1_レイヤ___1
  6
CONTINUOUS
 62
    7
 10
38.238642999999996
 20
226.33269999999999
 11
38.323735999999997
 21
225.61302000000001
  0
LINE
  8
_0-1_レイヤ___1
  6
CONTINUOUS
 62
    7
 10
38.323735999999997
 20
225.61302000000001
 11
38.408141000000001
 21
224.89333999999999
  0
LINE
  8
_0-1_レイヤ___1
  6
CONTINUOUS
 62
    7
 10
38.408141000000001
 20
224.89333999999999
 11
38.493234999999999
 21
224.21603999999999
  0
LINE
  8
_0-1_レイヤ___1
  6
CONTINUOUS
 62
    7
 10
38.493234999999999
 20
224.21603999999999
 11
38.577295000000007
 21
223.49636000000001
  0
LINE
  8
_0-1_レイヤ___1
  6
CONTINUOUS
 62
    7
 10
38.577295000000007
 20
223.49636000000001
 11
38.662389000000005
 21
222.81905
  0
LINE
  8
_0-1_レイヤ___1
  6
CONTINUOUS
 62
    7
 10
38.662389000000005
 20
222.81905
 11
38.746793999999994
 21
222.1414
  0
LINE
  8
_0-1_レイヤ___1
  6
CONTINUOUS
 62
    7
 10
38.746793999999994
 20
222.1414
 11
38.831888000000006
 21
221.50681
  0
LINE
  8
_0-1_レイヤ___1
  6
CONTINUOUS
 62
    7
 10
38.831888000000006
 20
221.50681
 11
38.958322999999993
 21
220.82916
  0
LINE
  8
_0-1_レイヤ___1
  6
CONTINUOUS
 62
    7
 10
38.958322999999993
 20
220.82916
 11
39.043417000000005
 21
220.19458
  0
LINE
  8
_0-1_レイヤ___1
  6
CONTINUOUS
 62
    7
 10
39.043417000000005
 20
220.19458
 11
39.170541
 21
219.55930000000001
  0
LINE
  8
_0-1_レイヤ___1
  6
CONTINUOUS
 62
    7
 10
39.170541
 20
219.55930000000001
 11
39.296976000000001
 21
218.92402000000001
  0
LINE
  8
_0-1_レイヤ___1
  6
CONTINUOUS
 62
    7
 10
39.296976000000001
 20
218.92402000000001
 11
39.424099999999996
 21
218.33147
  0
LINE
  8
_0-1_レイヤ___1
  6
CONTINUOUS
 62
    7
 10
39.424099999999996
 20
218.33147
 11
39.551568000000003
 21
217.69687999999999
  0
LINE
  8
_0-1_レイヤ___1
  6
CONTINUOUS
 62
    7
 10
39.551568000000003
 20
217.69687999999999
 11
39.678003000000004
 21
217.10398000000001
  0
LINE
  8
_0-1_レイヤ___1
  6
CONTINUOUS
 62
    7
 10
39.678003000000004
 20
217.10398000000001
 11
39.805126999999999
 21
216.51177000000001
  0
LINE
  8
_0-1_レイヤ___1
  6
CONTINUOUS
 62
    7
 10
39.805126999999999
 20
216.51177000000001
 11
39.932250999999994
 21
215.96124
  0
LINE
  8
_0-1_レイヤ___1
  6
CONTINUOUS
 62
    7
 10
39.932250999999994
 20
215.96124
 11
40.059719999999999
 21
215.36799999999999
  0
LINE
  8
_0-1_レイヤ___1
  6
CONTINUOUS
 62
    7
 10
40.059719999999999
 20
215.36799999999999
 11
40.229219000000001
 21
214.81782000000001
  0
LINE
  8
_0-1_レイヤ___1
  6
CONTINUOUS
 62
    7
 10
40.229219000000001
 20
214.81782000000001
 11
40.355309000000005
 21
214.26763
  0
LINE
  8
_0-1_レイヤ___1
  6
CONTINUOUS
 62
    7
 10
40.355309000000005
 20
214.26763
 11
40.524807999999993
 21
213.71745000000001
  0
LINE
  8
_0-1_レイヤ___1
  6
CONTINUOUS
 62
    7
 10
40.524807999999993
 20
213.71745000000001
 11
40.693961999999999
 21
213.16693000000001
  0
LINE
  8
_0-1_レイヤ___1
  6
CONTINUOUS
 62
    7
 10
40.693961999999999
 20
213.16693000000001
 11
40.863461000000001
 21
212.65912
  0
LINE
  8
_0-1_レイヤ___1
  6
CONTINUOUS
 62
    7
 10
40.863461000000001
 20
212.65912
 11
41.032615000000007
 21
212.15097
  0
LINE
  8
_0-1_レイヤ___1
  6
CONTINUOUS
 62
    7
 10
41.032615000000007
 20
212.15097
 11
41.202457999999993
 21
211.64247
  0
LINE
  8
_0-1_レイヤ___1
  6
CONTINUOUS
 62
    7
 10
41.202457999999993
 20
211.64247
 11
41.371611999999999
 21
211.13534999999999
  0
LINE
  8
_0-1_レイヤ___1
  6
CONTINUOUS
 62
    7
 10
41.371611999999999
 20
211.13534999999999
 11
41.541111000000001
 21
210.62719999999999
  0
LINE
  8
_0-1_レイヤ___1
  6
CONTINUOUS
 62
    7
 10
41.541111000000001
 20
210.62719999999999
 11
41.752295000000004
 21
210.16141999999999
  0
LINE
  8
_0-1_レイヤ___1
  6
CONTINUOUS
 62
    7
 10
41.752295000000004
 20
210.16141999999999
 11
42.133323000000004
 21
209.18783999999999
  0
LINE
  8
_0-1_レイヤ___1
  6
CONTINUOUS
 62
    7
 10
42.133323000000004
 20
209.18783999999999
 11
42.514351000000005
 21
208.29901000000001
  0
LINE
  8
_0-1_レイヤ___1
  6
CONTINUOUS
 62
    7
 10
42.514351000000005
 20
208.29901000000001
 11
42.938096999999999
 21
207.40983
  0
LINE
  8
_0-1_レイヤ___1
  6
CONTINUOUS
 62
    7
 10
42.938096999999999
 20
207.40983
 11
43.361154999999997
 21
206.56336999999999
  0
LINE
  8
_0-1_レイヤ___1
  6
CONTINUOUS
 62
    7
 10
43.361154999999997
 20
206.56336999999999
 11
43.827275999999998
 21
205.71621999999999
  0
LINE
  8
_0-1_レイヤ___1
  6
CONTINUOUS
 62
    7
 10
43.827275999999998
 20
205.71621999999999
 11
44.292364000000006
 21
204.91247999999999
  0
LINE
  8
_0-1_レイヤ___1
  6
CONTINUOUS
 62
    7
 10
44.292364000000006
 20
204.91247999999999
 11
44.800516000000002
 21
204.15008
  0
LINE
  8
_0-1_レイヤ___1
  6
CONTINUOUS
 62
    7
 10
44.800516000000002
 20
204.15008
 11
45.308323000000001
 21
203.43039999999999
  0
LINE
  8
_0-1_レイヤ___1
  6
CONTINUOUS
 62
    7
 10
45.308323000000001
 20
203.43039999999999
 11
45.816818999999995
 21
202.71072000000001
  0
LINE
  8
_0-1_レイヤ___1
  6
CONTINUOUS
 62
    7
 10
45.816818999999995
 20
202.71072000000001
 11
46.367001000000002
 21
201.99104
  0
LINE
  8
_0-1_レイヤ___1
  6
CONTINUOUS
 62
    7
 10
46.367001000000002
 20
201.99104
 11
46.959557000000004
 21
201.35645
  0
LINE
  8
_0-1_レイヤ___1
  6
CONTINUOUS
 62
    7
 10
46.959557000000004
 20
201.35645
 11
47.510428000000005
 21
200.67913999999999
  0
LINE
  8
_0-1_レイヤ___1
  6
CONTINUOUS
 62
    7
 10
47.510428000000005
 20
200.67913999999999
 11
48.102639999999994
 21
200.08555000000001
  0
LINE
  8
_0-1_レイヤ___1
  6
CONTINUOUS
 62
    7
 10
48.102639999999994
 20
200.08555000000001
 11
48.737227000000004
 21
199.45131000000001
  0
LINE
  8
_0-1_レイヤ___1
  6
CONTINUOUS
 62
    7
 10
48.737227000000004
 20
199.45131000000001
 11
49.372846999999993
 21
198.90112999999999
  0
LINE
  8
_0-1_レイヤ___1
  6
CONTINUOUS
 62
    7
 10
49.372846999999993
 20
198.90112999999999
 11
50.008122
 21
198.30753999999999
  0
LINE
  8
_0-1_レイヤ___1
  6
CONTINUOUS
 62
    7
 10
50.008122
 20
198.30753999999999
 11
50.684738999999993
 21
197.80042
  0
LINE
  8
_0-1_レイヤ___1
  6
CONTINUOUS
 62
    7
 10
50.684738999999993
 20
197.80042
 11
51.362044999999995
 21
197.2499
  0
LINE
  8
_0-1_レイヤ___1
  6
CONTINUOUS
 62
    7
 10
51.362044999999995
 20
197.2499
 11
52.081725000000006
 21
196.74208999999999
  0
LINE
  8
_0-1_レイヤ___1
  6
CONTINUOUS
 62
    7
 10
52.081725000000006
 20
196.74208999999999
 11
52.801406
 21
196.27597
  0
LINE
  8
_0-1_レイヤ___1
  6
CONTINUOUS
 62
    7
 10
52.801406
 20
196.27597
 11
53.564149999999998
 21
195.80985000000001
  0
LINE
  8
_0-1_レイヤ___1
  6
CONTINUOUS
 62
    7
 10
53.564149999999998
 20
195.80985000000001
 11
54.325860000000006
 21
195.3451
  0
LINE
  8
_0-1_レイヤ___1
  6
CONTINUOUS
 62
    7
 10
54.325860000000006
 20
195.3451
 11
54.706888000000006
 21
195.13323
  0
LINE
  8
_0-1_レイヤ___1
  6
CONTINUOUS
 62
    7
 10
54.706888000000006
 20
195.13323
 11
55.129600999999994
 21
194.92101
  0
LINE
  8
_0-1_レイヤ___1
  6
CONTINUOUS
 62
    7
 10
55.129600999999994
 20
194.92101
 11
55.511318000000003
 21
194.66745
  0
LINE
  8
_0-1_レイヤ___1
  6
CONTINUOUS
 62
    7
 10
55.511318000000003
 20
194.66745
 11
55.934376
 21
194.49795
  0
LINE
  8
_0-1_レイヤ___1
  6
CONTINUOUS
 62
    7
 10
55.934376
 20
194.49795
 11
56.400497000000001
 21
194.28676999999999
  0
LINE
  8
_0-1_レイヤ___1
  6
CONTINUOUS
 62
    7
 10
56.400497000000001
 20
194.28676999999999
 11
56.823549999999997
 21
194.07490000000001
  0
LINE
  8
_0-1_レイヤ___1
  6
CONTINUOUS
 62
    7
 10
56.823549999999997
 20
194.07490000000001
 11
57.289330000000007
 21
193.86268000000001
  0
LINE
  8
_0-1_レイヤ___1
  6
CONTINUOUS
 62
    7
 10
57.289330000000007
 20
193.86268000000001
 11
57.754760000000005
 21
193.69387
  0
LINE
  8
_0-1_レイヤ___1
  6
CONTINUOUS
 62
    7
 10
57.754760000000005
 20
193.69387
 11
58.262910000000005
 21
193.48165
  0
LINE
  8
_0-1_レイヤ___1
  6
CONTINUOUS
 62
    7
 10
58.262910000000005
 20
193.48165
 11
58.770719999999997
 21
193.31215
  0
LINE
  8
_0-1_レイヤ___1
  6
CONTINUOUS
 62
    7
 10
58.770719999999997
 20
193.31215
 11
59.321240000000003
 21
193.143
  0
LINE
  8
_0-1_レイヤ___1
  6
CONTINUOUS
 62
    7
 10
59.321240000000003
 20
193.143
 11
59.871430000000004
 21
192.93146999999999
  0
LINE
  8
_0-1_レイヤ___1
  6
CONTINUOUS
 62
    7
 10
59.871430000000004
 20
192.93146999999999
 11
60.421260000000004
 21
192.76231000000001
  0
LINE
  8
_0-1_レイヤ___1
  6
CONTINUOUS
 62
    7
 10
60.421260000000004
 20
192.76231000000001
 11
61.014160000000004
 21
192.59246999999999
  0
LINE
  8
_0-1_レイヤ___1
  6
CONTINUOUS
 62
    7
 10
61.014160000000004
 20
192.59246999999999
 11
61.649439999999998
 21
192.46637999999999
  0
LINE
  8
_0-1_レイヤ___1
  6
CONTINUOUS
 62
    7
 10
61.649439999999998
 20
192.46637999999999
 11
62.284719999999993
 21
192.29687999999999
  0
LINE
  8
_0-1_レイヤ___1
  6
CONTINUOUS
 62
    7
 10
62.284719999999993
 20
192.29687999999999
 11
62.961330000000004
 21
192.12773000000001
  0
LINE
  8
_0-1_レイヤ___1
  6
CONTINUOUS
 62
    7
 10
62.961330000000004
 20
192.12773000000001
 11
63.638639999999995
 21
192.00026
  0
LINE
  8
_0-1_レイヤ___1
  6
CONTINUOUS
 62
    7
 10
63.638639999999995
 20
192.00026
 11
64.358320000000006
 21
191.83109999999999
  0
LINE
  8
_0-1_レイヤ___1
  6
CONTINUOUS
 62
    7
 10
64.358320000000006
 20
191.83109999999999
 11
65.12106
 21
191.70364000000001
  0
LINE
  8
_0-1_レイヤ___1
  6
CONTINUOUS
 62
    7
 10
65.12106
 20
191.70364000000001
 11
65.882769999999994
 21
191.5772
  0
LINE
  8
_0-1_レイヤ___1
  6
CONTINUOUS
 62
    7
 10
65.882769999999994
 20
191.5772
 11
66.686859999999996
 21
191.45008000000001
  0
LINE
  8
_0-1_レイヤ___1
  6
CONTINUOUS
 62
    7
 10
66.686859999999996
 20
191.45008000000001
 11
67.533659999999998
 21
191.28057999999999
  0
LINE
  8
_0-1_レイヤ___1
  6
CONTINUOUS
 62
    7
 10
67.533659999999998
 20
191.28057999999999
 11
68.422839999999994
 21
191.19617
  0
LINE
  8
_0-1_レイヤ___1
  6
CONTINUOUS
 62
    7
 10
68.422839999999994
 20
191.19617
 11
69.353710000000007
 21
191.06939
  0
LINE
  8
_0-1_レイヤ___1
  6
CONTINUOUS
 62
    7
 10
69.353710000000007
 20
191.06939
 11
69.819829999999996
 21
190.98429999999999
  0
LINE
  8
_0-1_レイヤ___1
  6
CONTINUOUS
 62
    7
 10
69.819829999999996
 20
190.98429999999999
 11
70.285610000000005
 21
190.94193000000001
  0
LINE
  8
_0-1_レイヤ___1
  6
CONTINUOUS
 62
    7
 10
70.285610000000005
 20
190.94193000000001
 11
70.750690000000006
 21
190.8999
  0
LINE
  8
_0-1_レイヤ___1
  6
CONTINUOUS
 62
    7
 10
70.750690000000006
 20
190.8999
 11
71.259190000000004
 21
190.85751999999999
  0
LINE
  8
_0-1_レイヤ___1
  6
CONTINUOUS
 62
    7
 10
71.259190000000004
 20
190.85751999999999
 11
71.766999999999996
 21
190.77277000000001
  0
LINE
  8
_0-1_レイヤ___1
  6
CONTINUOUS
 62
    7
 10
71.766999999999996
 20
190.77277000000001
 11
72.275149999999996
 21
190.73074
  0
LINE
  8
_0-1_レイヤ___1
  6
CONTINUOUS
 62
    7
 10
72.275149999999996
 20
190.73074
 11
72.825329999999994
 21
190.68836999999999
  0
LINE
  8
_0-1_レイヤ___1
  6
CONTINUOUS
 62
    7
 10
72.825329999999994
 20
190.68836999999999
 11
73.333479999999994
 21
190.64529999999999
  0
LINE
  8
_0-1_レイヤ___1
  6
CONTINUOUS
 62
    7
 10
73.333479999999994
 20
190.64529999999999
 11
73.883660000000006
 21
190.60327000000001
  0
LINE
  8
_0-1_レイヤ___1
  6
CONTINUOUS
 62
    7
 10
73.883660000000006
 20
190.60327000000001
 11
74.434190000000001
 21
190.51886999999999
  0
LINE
  8
_0-1_レイヤ___1
  6
CONTINUOUS
 62
    7
 10
74.434190000000001
 20
190.51886999999999
 11
75.026399999999995
 21
190.47579999999999
  0
LINE
  8
_0-1_レイヤ___1
  6
CONTINUOUS
 62
    7
 10
75.026399999999995
 20
190.47579999999999
 11
75.576580000000007
 21
190.43412000000001
  0
LINE
  8
_0-1_レイヤ___1
  6
CONTINUOUS
 62
    7
 10
75.576580000000007
 20
190.43412000000001
 11
76.170169999999999
 21
190.39174
  0
LINE
  8
_0-1_レイヤ___1
  6
CONTINUOUS
 62
    7
 10
76.170169999999999
 20
190.39174
 11
76.762379999999993
 21
190.34970999999999
  0
LINE
  8
_0-1_レイヤ___1
  6
CONTINUOUS
 62
    7
 10
76.762379999999993
 20
190.34970999999999
 11
77.397660000000002
 21
190.30734000000001
  0
LINE
  8
_0-1_レイヤ___1
  6
CONTINUOUS
 62
    7
 10
77.397660000000002
 20
190.30734000000001
 11
77.990219999999994
 21
190.26462000000001
  0
LINE
  8
_0-1_レイヤ___1
  6
CONTINUOUS
 62
    7
 10
77.990219999999994
 20
190.26462000000001
 11
78.624799999999993
 21
190.22224
  0
LINE
  8
_0-1_レイヤ___1
  6
CONTINUOUS
 62
    7
 10
78.624799999999993
 20
190.22224
 11
79.260080000000002
 21
190.22224
  0
LINE
  8
_0-1_レイヤ___1
  6
CONTINUOUS
 62
    7
 10
79.260080000000002
 20
190.22224
 11
79.937380000000005
 21
190.18020999999999
  0
LINE
  8
_0-1_レイヤ___1
  6
CONTINUOUS
 62
    7
 10
79.937380000000005
 20
190.18020999999999
 11
80.615039999999993
 21
190.13784000000001
  0
LINE
  8
_0-1_レイヤ___1
  6
CONTINUOUS
 62
    7
 10
80.615039999999993
 20
190.13784000000001
 11
81.291650000000004
 21
190.09512000000001
  0
LINE
  8
_0-1_レイヤ___1
  6
CONTINUOUS
 62
    7
 10
81.291650000000004
 20
190.09512000000001
 11
81.968959999999996
 21
190.05309
  0
LINE
  8
_0-1_レイヤ___1
  6
CONTINUOUS
 62
    7
 10
81.968959999999996
 20
190.05309
 11
82.646609999999995
 21
190.05309
  0
LINE
  8
_0-1_レイヤ___1
  6
CONTINUOUS
 62
    7
 10
82.646609999999995
 20
190.05309
 11
83.366290000000006
 21
190.01105999999999
  0
LINE
  8
_0-1_レイヤ___1
  6
CONTINUOUS
 62
    7
 10
83.366290000000006
 20
190.01105999999999
 11
84.085620000000006
 21
189.96869000000001
  0
LINE
  8
_0-1_レイヤ___1
  6
CONTINUOUS
 62
    7
 10
84.085620000000006
 20
189.96869000000001
 11
84.847679999999997
 21
189.96869000000001
  0
LINE
  8
_0-1_レイヤ___1
  6
CONTINUOUS
 62
    7
 10
84.847679999999997
 20
189.96869000000001
 11
85.610080000000011
 21
189.92562000000001
  0
LINE
  8
_0-1_レイヤ___1
  6
CONTINUOUS
 62
    7
 10
85.610080000000011
 20
189.92562000000001
 11
86.372129999999999
 21
189.88359
  0
LINE
  8
_0-1_レイヤ___1
  6
CONTINUOUS
 62
    7
 10
86.372129999999999
 20
189.88359
 11
87.133839999999992
 21
189.88359
  0
LINE
  8
_0-1_レイヤ___1
  6
CONTINUOUS
 62
    7
 10
87.133839999999992
 20
189.88359
 11
87.938269999999989
 21
189.84155999999999
  0
LINE
  8
_0-1_レイヤ___1
  6
CONTINUOUS
 62
    7
 10
87.938269999999989
 20
189.84155999999999
 11
262.35140000000001
 21
189.84155999999999
  0
LINE
  8
_0-1_レイヤ___1
  6
CONTINUOUS
 62
    7
 10
262.35140000000001
 20
189.84155999999999
 11
263.11415
 21
189.88359
  0
LINE
  8
_0-1_レイヤ___1
  6
CONTINUOUS
 62
    7
 10
263.11415
 20
189.88359
 11
263.91789
 21
189.88359
  0
LINE
  8
_0-1_レイヤ___1
  6
CONTINUOUS
 62
    7
 10
263.91789
 20
189.88359
 11
264.67993999999999
 21
189.92562000000001
  0
LINE
  8
_0-1_レイヤ___1
  6
CONTINUOUS
 62
    7
 10
264.67993999999999
 20
189.92562000000001
 11
265.39997
 21
189.96869000000001
  0
LINE
  8
_0-1_レイヤ___1
  6
CONTINUOUS
 62
    7
 10
265.39997
 20
189.96869000000001
 11
266.16201999999998
 21
189.96869000000001
  0
LINE
  8
_0-1_レイヤ___1
  6
CONTINUOUS
 62
    7
 10
266.16201999999998
 20
189.96869000000001
 11
266.88170000000002
 21
190.01105999999999
  0
LINE
  8
_0-1_レイヤ___1
  6
CONTINUOUS
 62
    7
 10
266.88170000000002
 20
190.01105999999999
 11
267.60104000000001
 21
190.05309
  0
LINE
  8
_0-1_レイヤ___1
  6
CONTINUOUS
 62
    7
 10
267.60104000000001
 20
190.05309
 11
268.27868999999998
 21
190.05309
  0
LINE
  8
_0-1_レイヤ___1
  6
CONTINUOUS
 62
    7
 10
268.27868999999998
 20
190.05309
 11
268.99837000000002
 21
190.09512000000001
  0
LINE
  8
_0-1_レイヤ___1
  6
CONTINUOUS
 62
    7
 10
268.99837000000002
 20
190.09512000000001
 11
269.67567000000003
 21
190.13784000000001
  0
LINE
  8
_0-1_レイヤ___1
  6
CONTINUOUS
 62
    7
 10
269.67567000000003
 20
190.13784000000001
 11
270.31061
 21
190.18020999999999
  0
LINE
  8
_0-1_レイヤ___1
  6
CONTINUOUS
 62
    7
 10
270.31061
 20
190.18020999999999
 11
270.98791
 21
190.22224
  0
LINE
  8
_0-1_レイヤ___1
  6
CONTINUOUS
 62
    7
 10
270.98791
 20
190.22224
 11
271.62319000000002
 21
190.22224
  0
LINE
  8
_0-1_レイヤ___1
  6
CONTINUOUS
 62
    7
 10
271.62319000000002
 20
190.22224
 11
272.25776999999999
 21
190.26462000000001
  0
LINE
  8
_0-1_レイヤ___1
  6
CONTINUOUS
 62
    7
 10
272.25776999999999
 20
190.26462000000001
 11
272.84998999999999
 21
190.30734000000001
  0
LINE
  8
_0-1_レイヤ___1
  6
CONTINUOUS
 62
    7
 10
272.84998999999999
 20
190.30734000000001
 11
273.48561000000001
 21
190.34970999999999
  0
LINE
  8
_0-1_レイヤ___1
  6
CONTINUOUS
 62
    7
 10
273.48561000000001
 20
190.34970999999999
 11
274.07781999999997
 21
190.39174
  0
LINE
  8
_0-1_レイヤ___1
  6
CONTINUOUS
 62
    7
 10
274.07781999999997
 20
190.39174
 11
274.67106000000001
 21
190.43412000000001
  0
LINE
  8
_0-1_レイヤ___1
  6
CONTINUOUS
 62
    7
 10
274.67106000000001
 20
190.43412000000001
 11
275.22124000000002
 21
190.47579999999999
  0
LINE
  8
_0-1_レイヤ___1
  6
CONTINUOUS
 62
    7
 10
275.22124000000002
 20
190.47579999999999
 11
275.81380000000001
 21
190.51886999999999
  0
LINE
  8
_0-1_レイヤ___1
  6
CONTINUOUS
 62
    7
 10
275.81380000000001
 20
190.51886999999999
 11
276.36398000000003
 21
190.60327000000001
  0
LINE
  8
_0-1_レイヤ___1
  6
CONTINUOUS
 62
    7
 10
276.36398000000003
 20
190.60327000000001
 11
276.91451000000001
 21
190.64529999999999
  0
LINE
  8
_0-1_レイヤ___1
  6
CONTINUOUS
 62
    7
 10
276.91451000000001
 20
190.64529999999999
 11
277.42232000000001
 21
190.68836999999999
  0
LINE
  8
_0-1_レイヤ___1
  6
CONTINUOUS
 62
    7
 10
277.42232000000001
 20
190.68836999999999
 11
277.97284000000002
 21
190.73074
  0
LINE
  8
_0-1_レイヤ___1
  6
CONTINUOUS
 62
    7
 10
277.97284000000002
 20
190.73074
 11
278.48065000000003
 21
190.77277000000001
  0
LINE
  8
_0-1_レイヤ___1
  6
CONTINUOUS
 62
    7
 10
278.48065000000003
 20
190.77277000000001
 11
278.98880000000003
 21
190.85751999999999
  0
LINE
  8
_0-1_レイヤ___1
  6
CONTINUOUS
 62
    7
 10
278.98880000000003
 20
190.85751999999999
 11
279.4973
 21
190.8999
  0
LINE
  8
_0-1_レイヤ___1
  6
CONTINUOUS
 62
    7
 10
279.4973
 20
190.8999
 11
279.96204
 21
190.94193000000001
  0
LINE
  8
_0-1_レイヤ___1
  6
CONTINUOUS
 62
    7
 10
279.96204
 20
190.94193000000001
 11
280.47054000000003
 21
190.98429999999999
  0
LINE
  8
_0-1_レイヤ___1
  6
CONTINUOUS
 62
    7
 10
280.47054000000003
 20
190.98429999999999
 11
280.93597
 21
191.06939
  0
LINE
  8
_0-1_レイヤ___1
  6
CONTINUOUS
 62
    7
 10
280.93597
 20
191.06939
 11
281.82549
 21
191.19617
  0
LINE
  8
_0-1_レイヤ___1
  6
CONTINUOUS
 62
    7
 10
281.82549
 20
191.19617
 11
282.71397999999999
 21
191.28057999999999
  0
LINE
  8
_0-1_レイヤ___1
  6
CONTINUOUS
 62
    7
 10
282.71397999999999
 20
191.28057999999999
 11
283.56112999999999
 21
191.45008000000001
  0
LINE
  8
_0-1_レイヤ___1
  6
CONTINUOUS
 62
    7
 10
283.56112999999999
 20
191.45008000000001
 11
284.36522000000002
 21
191.5772
  0
LINE
  8
_0-1_レイヤ___1
  6
CONTINUOUS
 62
    7
 10
284.36522000000002
 20
191.5772
 11
285.12657999999999
 21
191.70364000000001
  0
LINE
  8
_0-1_レイヤ___1
  6
CONTINUOUS
 62
    7
 10
285.12657999999999
 20
191.70364000000001
 11
285.88932999999997
 21
191.83109999999999
  0
LINE
  8
_0-1_レイヤ___1
  6
CONTINUOUS
 62
    7
 10
285.88932999999997
 20
191.83109999999999
 11
286.60901000000001
 21
192.00026
  0
LINE
  8
_0-1_レイヤ___1
  6
CONTINUOUS
 62
    7
 10
286.60901000000001
 20
192.00026
 11
287.32868999999999
 21
192.12773000000001
  0
LINE
  8
_0-1_レイヤ___1
  6
CONTINUOUS
 62
    7
 10
287.32868999999999
 20
192.12773000000001
 11
287.96327000000002
 21
192.29687999999999
  0
LINE
  8
_0-1_レイヤ___1
  6
CONTINUOUS
 62
    7
 10
287.96327000000002
 20
192.29687999999999
 11
288.64058
 21
192.46637999999999
  0
LINE
  8
_0-1_レイヤ___1
  6
CONTINUOUS
 62
    7
 10
288.64058
 20
192.46637999999999
 11
289.23383000000001
 21
192.59246999999999
  0
LINE
  8
_0-1_レイヤ___1
  6
CONTINUOUS
 62
    7
 10
289.23383000000001
 20
192.59246999999999
 11
289.82637999999997
 21
192.76231000000001
  0
LINE
  8
_0-1_レイヤ___1
  6
CONTINUOUS
 62
    7
 10
289.82637999999997
 20
192.76231000000001
 11
290.41894000000002
 21
192.93146999999999
  0
LINE
  8
_0-1_レイヤ___1
  6
CONTINUOUS
 62
    7
 10
290.41894000000002
 20
192.93146999999999
 11
290.96911999999998
 21
193.143
  0
LINE
  8
_0-1_レイヤ___1
  6
CONTINUOUS
 62
    7
 10
290.96911999999998
 20
193.143
 11
291.47726999999998
 21
193.31215
  0
LINE
  8
_0-1_レイヤ___1
  6
CONTINUOUS
 62
    7
 10
291.47726999999998
 20
193.31215
 11
291.98507999999998
 21
193.48165
  0
LINE
  8
_0-1_レイヤ___1
  6
CONTINUOUS
 62
    7
 10
291.98507999999998
 20
193.48165
 11
292.49358000000001
 21
193.69387
  0
LINE
  8
_0-1_レイヤ___1
  6
CONTINUOUS
 62
    7
 10
292.49358000000001
 20
193.69387
 11
292.95832000000001
 21
193.86268000000001
  0
LINE
  8
_0-1_レイヤ___1
  6
CONTINUOUS
 62
    7
 10
292.95832000000001
 20
193.86268000000001
 11
293.42444
 21
194.07490000000001
  0
LINE
  8
_0-1_レイヤ___1
  6
CONTINUOUS
 62
    7
 10
293.42444
 20
194.07490000000001
 11
293.89055999999999
 21
194.28676999999999
  0
LINE
  8
_0-1_レイヤ___1
  6
CONTINUOUS
 62
    7
 10
293.89055999999999
 20
194.28676999999999
 11
294.31326999999999
 21
194.49795
  0
LINE
  8
_0-1_レイヤ___1
  6
CONTINUOUS
 62
    7
 10
294.31326999999999
 20
194.49795
 11
294.73633000000001
 21
194.66745
  0
LINE
  8
_0-1_レイヤ___1
  6
CONTINUOUS
 62
    7
 10
294.73633000000001
 20
194.66745
 11
295.16041999999999
 21
194.92101
  0
LINE
  8
_0-1_レイヤ___1
  6
CONTINUOUS
 62
    7
 10
295.16041999999999
 20
194.92101
 11
295.54111
 21
195.13323
  0
LINE
  8
_0-1_レイヤ___1
  6
CONTINUOUS
 62
    7
 10
295.54111
 20
195.13323
 11
295.92212999999998
 21
195.3451
  0
LINE
  8
_0-1_レイヤ___1
  6
CONTINUOUS
 62
    7
 10
295.92212999999998
 20
195.3451
 11
296.72690999999998
 21
195.80985000000001
  0
LINE
  8
_0-1_レイヤ___1
  6
CONTINUOUS
 62
    7
 10
296.72690999999998
 20
195.80985000000001
 11
297.44623999999999
 21
196.27597
  0
LINE
  8
_0-1_レイヤ___1
  6
CONTINUOUS
 62
    7
 10
297.44623999999999
 20
196.27597
 11
298.16627
 21
196.74208999999999
  0
LINE
  8
_0-1_レイヤ___1
  6
CONTINUOUS
 62
    7
 10
298.16627
 20
196.74208999999999
 11
298.88560999999999
 21
197.2499
  0
LINE
  8
_0-1_レイヤ___1
  6
CONTINUOUS
 62
    7
 10
298.88560999999999
 20
197.2499
 11
299.56290999999999
 21
197.80042
  0
LINE
  8
_0-1_レイヤ___1
  6
CONTINUOUS
 62
    7
 10
299.56290999999999
 20
197.80042
 11
300.23953
 21
198.30753999999999
  0
LINE
  8
_0-1_レイヤ___1
  6
CONTINUOUS
 62
    7
 10
300.23953
 20
198.30753999999999
 11
300.87515000000002
 21
198.90112999999999
  0
LINE
  8
_0-1_レイヤ___1
  6
CONTINUOUS
 62
    7
 10
300.87515000000002
 20
198.90112999999999
 11
301.51042000000001
 21
199.45131000000001
  0
LINE
  8
_0-1_レイヤ___1
  6
CONTINUOUS
 62
    7
 10
301.51042000000001
 20
199.45131000000001
 11
302.14501000000001
 21
200.08555000000001
  0
LINE
  8
_0-1_レイヤ___1
  6
CONTINUOUS
 62
    7
 10
302.14501000000001
 20
200.08555000000001
 11
302.73721999999998
 21
200.67913999999999
  0
LINE
  8
_0-1_レイヤ___1
  6
CONTINUOUS
 62
    7
 10
302.73721999999998
 20
200.67913999999999
 11
303.33080999999999
 21
201.35645
  0
LINE
  8
_0-1_レイヤ___1
  6
CONTINUOUS
 62
    7
 10
303.33080999999999
 20
201.35645
 11
303.88065
 21
201.99104
  0
LINE
  8
_0-1_レイヤ___1
  6
CONTINUOUS
 62
    7
 10
303.88065
 20
201.99104
 11
304.43117999999998
 21
202.71072000000001
  0
LINE
  8
_0-1_レイヤ___1
  6
CONTINUOUS
 62
    7
 10
304.43117999999998
 20
202.71072000000001
 11
304.93932999999998
 21
203.43039999999999
  0
LINE
  8
_0-1_レイヤ___1
  6
CONTINUOUS
 62
    7
 10
304.93932999999998
 20
203.43039999999999
 11
305.44747999999998
 21
204.15008
  0
LINE
  8
_0-1_レイヤ___1
  6
CONTINUOUS
 62
    7
 10
305.44747999999998
 20
204.15008
 11
305.95562999999999
 21
204.91247999999999
  0
LINE
  8
_0-1_レイヤ___1
  6
CONTINUOUS
 62
    7
 10
305.95562999999999
 20
204.91247999999999
 11
306.42072000000002
 21
205.71621999999999
  0
LINE
  8
_0-1_レイヤ___1
  6
CONTINUOUS
 62
    7
 10
306.42072000000002
 20
205.71621999999999
 11
306.88684000000001
 21
206.56336999999999
  0
LINE
  8
_0-1_レイヤ___1
  6
CONTINUOUS
 62
    7
 10
306.88684000000001
 20
206.56336999999999
 11
307.30955
 21
207.40983
  0
LINE
  8
_0-1_レイヤ___1
  6
CONTINUOUS
 62
    7
 10
307.30955
 20
207.40983
 11
307.73329999999999
 21
208.29901000000001
  0
LINE
  8
_0-1_レイヤ___1
  6
CONTINUOUS
 62
    7
 10
307.73329999999999
 20
208.29901000000001
 11
308.1567
 21
209.18783999999999
  0
LINE
  8
_0-1_レイヤ___1
  6
CONTINUOUS
 62
    7
 10
308.1567
 20
209.18783999999999
 11
308.53737999999998
 21
210.16141999999999
  0
LINE
  8
_0-1_レイヤ___1
  6
CONTINUOUS
 62
    7
 10
308.53737999999998
 20
210.16141999999999
 11
308.70688000000001
 21
210.62719999999999
  0
LINE
  8
_0-1_レイヤ___1
  6
CONTINUOUS
 62
    7
 10
308.70688000000001
 20
210.62719999999999
 11
308.87603999999999
 21
211.13534999999999
  0
LINE
  8
_0-1_レイヤ___1
  6
CONTINUOUS
 62
    7
 10
308.87603999999999
 20
211.13534999999999
 11
309.04588000000001
 21
211.64247
  0
LINE
  8
_0-1_レイヤ___1
  6
CONTINUOUS
 62
    7
 10
309.04588000000001
 20
211.64247
 11
309.25707
 21
212.15097
  0
LINE
  8
_0-1_レイヤ___1
  6
CONTINUOUS
 62
    7
 10
309.25707
 20
212.15097
 11
309.42622
 21
212.65912
  0
LINE
  8
_0-1_レイヤ___1
  6
CONTINUOUS
 62
    7
 10
309.42622
 20
212.65912
 11
309.55369000000002
 21
213.16693000000001
  0
LINE
  8
_0-1_レイヤ___1
  6
CONTINUOUS
 62
    7
 10
309.55369000000002
 20
213.16693000000001
 11
309.72318999999999
 21
213.71745000000001
  0
LINE
  8
_0-1_レイヤ___1
  6
CONTINUOUS
 62
    7
 10
309.72318999999999
 20
213.71745000000001
 11
309.89233999999999
 21
214.26763
  0
LINE
  8
_0-1_レイヤ___1
  6
CONTINUOUS
 62
    7
 10
309.89233999999999
 20
214.26763
 11
310.01877999999999
 21
214.81782000000001
  0
LINE
  8
_0-1_レイヤ___1
  6
CONTINUOUS
 62
    7
 10
310.01877999999999
 20
214.81782000000001
 11
310.18826999999999
 21
215.36799999999999
  0
LINE
  8
_0-1_レイヤ___1
  6
CONTINUOUS
 62
    7
 10
310.18826999999999
 20
215.36799999999999
 11
310.31540000000001
 21
215.96124
  0
LINE
  8
_0-1_レイヤ___1
  6
CONTINUOUS
 62
    7
 10
310.31540000000001
 20
215.96124
 11
310.44287000000003
 21
216.51177000000001
  0
LINE
  8
_0-1_レイヤ___1
  6
CONTINUOUS
 62
    7
 10
310.44287000000003
 20
216.51177000000001
 11
310.61201999999997
 21
217.10398000000001
  0
LINE
  8
_0-1_レイヤ___1
  6
CONTINUOUS
 62
    7
 10
310.61201999999997
 20
217.10398000000001
 11
310.73845999999998
 21
217.69687999999999
  0
LINE
  8
_0-1_レイヤ___1
  6
CONTINUOUS
 62
    7
 10
310.73845999999998
 20
217.69687999999999
 11
310.86558000000002
 21
218.33147
  0
LINE
  8
_0-1_レイヤ___1
  6
CONTINUOUS
 62
    7
 10
310.86558000000002
 20
218.33147
 11
310.99304999999998
 21
218.92402000000001
  0
LINE
  8
_0-1_レイヤ___1
  6
CONTINUOUS
 62
    7
 10
310.99304999999998
 20
218.92402000000001
 11
311.07745
 21
219.55930000000001
  0
LINE
  8
_0-1_レイヤ___1
  6
CONTINUOUS
 62
    7
 10
311.07745
 20
219.55930000000001
 11
311.20458000000002
 21
220.19458
  0
LINE
  8
_0-1_レイヤ___1
  6
CONTINUOUS
 62
    7
 10
311.20458000000002
 20
220.19458
 11
311.28933000000001
 21
220.82916
  0
LINE
  8
_0-1_レイヤ___1
  6
CONTINUOUS
 62
    7
 10
311.28933000000001
 20
220.82916
 11
311.41611
 21
221.50681
  0
LINE
  8
_0-1_レイヤ___1
  6
CONTINUOUS
 62
    7
 10
311.41611
 20
221.50681
 11
311.50119999999998
 21
222.1414
  0
LINE
  8
_0-1_レイヤ___1
  6
CONTINUOUS
 62
    7
 10
311.50119999999998
 20
222.1414
 11
311.62729000000002
 21
222.81905
  0
LINE
  8
_0-1_レイヤ___1
  6
CONTINUOUS
 62
    7
 10
311.62729000000002
 20
222.81905
 11
311.71273000000002
 21
223.49636000000001
  0
LINE
  8
_0-1_レイヤ___1
  6
CONTINUOUS
 62
    7
 10
311.71273000000002
 20
223.49636000000001
 11
311.79678999999999
 21
224.21603999999999
  0
LINE
  8
_0-1_レイヤ___1
  6
CONTINUOUS
 62
    7
 10
311.79678999999999
 20
224.21603999999999
 11
311.88222999999999
 21
224.89333999999999
  0
LINE
  8
_0-1_レイヤ___1
  6
CONTINUOUS
 62
    7
 10
311.88222999999999
 20
224.89333999999999
 11
311.92390999999998
 21
225.61302000000001
  0
LINE
  8
_0-1_レイヤ___1
  6
CONTINUOUS
 62
    7
 10
311.92390999999998
 20
225.61302000000001
 11
312.00900999999999
 21
226.33269999999999
  0
LINE
  8
_0-1_レイヤ___1
  6
CONTINUOUS
 62
    7
 10
312.00900999999999
 20
226.33269999999999
 11
312.09341000000001
 21
227.09476000000001
  0
LINE
  8
_0-1_レイヤ___1
  6
CONTINUOUS
 62
    7
 10
312.09341000000001
 20
227.09476000000001
 11
312.13578999999999
 21
227.85681
  0
LINE
  8
_0-1_レイヤ___1
  6
CONTINUOUS
 62
    7
 10
312.13578999999999
 20
227.85681
 11
312.22088000000002
 21
228.57648999999998
  0
LINE
  8
_0-1_レイヤ___1
  6
CONTINUOUS
 62
    7
 10
312.22088000000002
 20
228.57648999999998
 11
312.26290999999998
 21
229.38058000000001
  0
LINE
  8
_0-1_レイヤ___1
  6
CONTINUOUS
 62
    7
 10
312.26290999999998
 20
229.38058000000001
 11
312.30493999999999
 21
230.14229
  0
LINE
  8
_0-1_レイヤ___1
  6
CONTINUOUS
 62
    7
 10
312.30493999999999
 20
230.14229
 11
312.39004
 21
230.94706000000002
  0
LINE
  8
_0-1_レイヤ___1
  6
CONTINUOUS
 62
    7
 10
312.39004
 20
230.94706000000002
 11
312.43207000000001
 21
231.75184000000002
  0
LINE
  8
_0-1_レイヤ___1
  6
CONTINUOUS
 62
    7
 10
312.43207000000001
 20
231.75184000000002
 11
312.47444000000002
 21
232.55558000000002
  0
LINE
  8
_0-1_レイヤ___1
  6
CONTINUOUS
 62
    7
 10
312.47444000000002
 20
232.55558000000002
 11
312.47444000000002
 21
233.36034999999998
  0
LINE
  8
_0-1_レイヤ___1
  6
CONTINUOUS
 62
    7
 10
312.47444000000002
 20
233.36034999999998
 11
312.51647000000003
 21
234.20647000000002
  0
LINE
  8
_0-1_レイヤ___1
  6
CONTINUOUS
 62
    7
 10
312.51647000000003
 20
234.20647000000002
 11
312.55953
 21
235.05327
  0
LINE
  8
_0-1_レイヤ___1
  6
CONTINUOUS
 62
    7
 10
312.55953
 20
235.05327
 11
312.55953
 21
235.90042
  0
LINE
  8
_0-1_レイヤ___1
  6
CONTINUOUS
 62
    7
 10
312.55953
 20
235.90042
 11
312.60190999999998
 21
236.78926000000001
  0
LINE
  8
_0-1_レイヤ___1
  6
CONTINUOUS
 62
    7
 10
312.60190999999998
 20
236.78926000000001
 11
312.60190999999998
 21
239.45645000000002
  0
LINE
  8
_0-1_レイヤ___1
  6
CONTINUOUS
 62
    7
 10
312.60190999999998
 20
239.45645000000002
 11
312.64393999999999
 21
240.38731000000001
  0
LINE
  8
_0-1_レイヤ___1
  6
CONTINUOUS
 62
    7
 10
312.64393999999999
 20
240.38731000000001
 11
312.64393999999999
 21
340.20929999999998
  0
LINE
  8
_0-0_0
  6
CONTINUOUS
 62
    7
 10
312.64393999999999
 20
380.21427
 11
315.64393999999999
 21
380.21427
  0
LINE
  8
_0-0_0
  6
CONTINUOUS
 62
    7
 10
176.64501000000001
 20
-155.13341
 11
176.64501000000001
 21
-125.11905400000001
  0
LINE
  8
_0-0_0
  6
CONTINUOUS
 62
    7
 10
173.64501000000001
 20
-125.11905400000001
 11
176.64501000000001
 21
-125.11905400000001
  0
LINE
  8
_0-0_0
  6
CONTINUOUS
 62
    7
 10
173.64501000000001
 20
-155.13341
 11
173.64501000000001
 21
-125.11905400000001
  0
LINE
  8
_0-1_レイヤ___1
  6
CONTINUOUS
 62
    7
 10
465.60351000000003
 20
147.72608
 11
465.60351000000003
 21
152.72147000000001
  0
LINE
  8
_0-1_レイヤ___1
  6
CONTINUOUS
 62
    7
 10
443.72163999999998
 20
140.61403000000001
 11
448.37459000000001
 21
142.13779
  0
LINE
  8
_0-1_レイヤ___1
  6
CONTINUOUS
 62
    7
 10
465.60351000000003
 20
147.72608
 11
465.60351000000003
 21
152.72147000000001
  0
LINE
  8
_0-1_レイヤ___1
  6
CONTINUOUS
 62
    7
 10
408.66951999999998
 20
407.73811999999998
 11
391.69346999999999
 21
407.73811999999998
  0
LINE
  8
_0-1_レイヤ___1
  6
CONTINUOUS
 62
    7
 10
391.69346999999999
 20
407.73811999999998
 11
391.69346999999999
 21
383.09931
  0
LINE
  8
_0-1_レイヤ___1
  6
CONTINUOUS
 62
    7
 10
391.69346999999999
 20
-192.25350000000003
 11
423.69736999999998
 21
-192.25350000000003
  0
LINE
  8
_0-1_レイヤ___1
  6
CONTINUOUS
 62
    7
 10
388.68797000000001
 20
90.406930000000003
 11
388.68797000000001
 21
130.41206
  0
LINE
  8
_0-1_レイヤ___1
  6
CONTINUOUS
 62
    7
 10
388.68797000000001
 20
130.41206
 11
391.69346999999999
 21
130.41206
  0
LINE
  8
_0-1_レイヤ___1
  6
CONTINUOUS
 62
    7
 10
388.68797000000001
 20
90.406930000000003
 11
391.69346999999999
 21
90.406930000000003
  0
LINE
  8
_0-1_レイヤ___1
  6
CONTINUOUS
 62
    7
 10
391.69346999999999
 20
90.406930000000003
 11
391.69346999999999
 21
-122.23400800000002
  0
LINE
  8
_0-1_レイヤ___1
  6
CONTINUOUS
 62
    7
 10
388.68797000000001
 20
-122.23400800000002
 11
388.68797000000001
 21
-162.23913999999999
  0
LINE
  8
_0-1_レイヤ___1
  6
CONTINUOUS
 62
    7
 10
388.68797000000001
 20
-162.23913999999999
 11
391.69346999999999
 21
-162.23913999999999
  0
LINE
  8
_0-1_レイヤ___1
  6
CONTINUOUS
 62
    7
 10
388.68797000000001
 20
-122.23400800000002
 11
391.69346999999999
 21
-122.23400800000002
  0
LINE
  8
_0-1_レイヤ___1
  6
CONTINUOUS
 62
    7
 10
391.69346999999999
 20
-162.23913999999999
 11
391.69346999999999
 21
-192.25350000000003
  0
LINE
  8
_0-1_レイヤ___1
  6
CONTINUOUS
 62
    7
 10
388.68797000000001
 20
383.09931
 11
388.68797000000001
 21
343.09433999999999
  0
LINE
  8
_0-1_レイヤ___1
  6
CONTINUOUS
 62
    7
 10
388.68797000000001
 20
343.09433999999999
 11
391.69346999999999
 21
343.09433999999999
  0
LINE
  8
_0-1_レイヤ___1
  6
CONTINUOUS
 62
    7
 10
388.68797000000001
 20
383.09931
 11
391.69346999999999
 21
383.09931
  0
LINE
  8
_0-1_レイヤ___1
  6
CONTINUOUS
 62
    7
 10
391.69346999999999
 20
343.09433999999999
 11
391.69346999999999
 21
130.41206
  0
LINE
  8
_0-1_レイヤ___1
  6
CONTINUOUS
 62
    7
 10
462.64589999999998
 20
152.72147000000001
 11
462.64589999999998
 21
162.75393
  0
LINE
  8
_0-1_レイヤ___1
  6
CONTINUOUS
 62
    7
 10
462.64589999999998
 20
162.75393
 11
465.60351000000003
 21
162.75393
  0
LINE
  8
_0-1_レイヤ___1
  6
CONTINUOUS
 62
    7
 10
465.60351000000003
 20
152.72147000000001
 11
462.64589999999998
 21
152.72147000000001
  0
LINE
  8
_0-1_レイヤ___1
  6
CONTINUOUS
 62
    7
 10
465.60351000000003
 20
162.75393
 11
465.56355000000002
 21
169.27377000000001
  0
LINE
  8
_0-1_レイヤ___1
  6
CONTINUOUS
 62
    7
 10
465.56355000000002
 20
169.27377000000001
 11
465.52289999999999
 21
172.53283999999999
  0
LINE
  8
_0-1_レイヤ___1
  6
CONTINUOUS
 62
    7
 10
465.52289999999999
 20
172.53283999999999
 11
465.48225000000002
 21
175.83529999999999
  0
LINE
  8
_0-1_レイヤ___1
  6
CONTINUOUS
 62
    7
 10
465.48225000000002
 20
175.83529999999999
 11
465.44159000000002
 21
179.09504999999999
  0
LINE
  8
_0-1_レイヤ___1
  6
CONTINUOUS
 62
    7
 10
465.44159000000002
 20
179.09504999999999
 11
465.31205999999997
 21
182.35515000000001
  0
LINE
  8
_0-1_レイヤ___1
  6
CONTINUOUS
 62
    7
 10
465.31205999999997
 20
182.35515000000001
 11
465.18252000000001
 21
185.61421000000001
  0
LINE
  8
_0-1_レイヤ___1
  6
CONTINUOUS
 62
    7
 10
465.18252000000001
 20
185.61421000000001
 11
465.01199000000003
 21
188.91598999999999
  0
LINE
  8
_0-1_レイヤ___1
  6
CONTINUOUS
 62
    7
 10
465.01199000000003
 20
188.91598999999999
 11
464.84215
 21
192.17643000000001
  0
LINE
  8
_0-1_レイヤ___1
  6
CONTINUOUS
 62
    7
 10
464.84215
 20
192.17643000000001
 11
464.59066000000001
 21
195.43583000000001
  0
LINE
  8
_0-1_レイヤ___1
  6
CONTINUOUS
 62
    7
 10
464.59066000000001
 20
195.43583000000001
 11
464.33951000000002
 21
198.69488999999999
  0
LINE
  8
_0-1_レイヤ___1
  6
CONTINUOUS
 62
    7
 10
464.33951000000002
 20
198.69488999999999
 11
464.03978000000001
 21
201.95533
  0
LINE
  8
_0-1_レイヤ___1
  6
CONTINUOUS
 62
    7
 10
464.03978000000001
 20
201.95533
 11
463.69941
 21
205.21473
  0
LINE
  8
_0-1_レイヤ___1
  6
CONTINUOUS
 62
    7
 10
463.69941
 20
205.21473
 11
463.31837999999999
 21
208.43210999999999
  0
LINE
  8
_0-1_レイヤ___1
  6
CONTINUOUS
 62
    7
 10
463.31837999999999
 20
208.43210999999999
 11
462.98593
 21
211.69185999999999
  0
LINE
  8
_0-1_レイヤ___1
  6
CONTINUOUS
 62
    7
 10
462.98593
 20
211.69185999999999
 11
462.55667
 21
214.95160999999999
  0
LINE
  8
_0-1_レイヤ___1
  6
CONTINUOUS
 62
    7
 10
417.17856
 20
395.29167999999999
 11
414.63815
 21
393.72536000000002
  0
LINE
  8
_0-1_レイヤ___1
  6
CONTINUOUS
 62
    7
 10
411.92892999999998
 20
403.80106000000001
 11
409.38920000000002
 21
402.23439999999999
  0
LINE
  8
_0-1_レイヤ___1
  6
CONTINUOUS
 62
    7
 10
409.38920000000002
 20
402.23439999999999
 11
414.63815
 21
393.72536000000002
  0
LINE
  8
_0-1_レイヤ___1
  6
CONTINUOUS
 62
    7
 10
411.92892999999998
 20
403.80106000000001
 11
411.16721999999999
 21
404.81632999999999
  0
LINE
  8
_0-1_レイヤ___1
  6
CONTINUOUS
 62
    7
 10
411.16721999999999
 20
404.81632999999999
 11
410.36243999999999
 21
405.83262999999999
  0
LINE
  8
_0-1_レイヤ___1
  6
CONTINUOUS
 62
    7
 10
410.36243999999999
 20
405.83262999999999
 11
409.93973
 21
406.29876000000002
  0
LINE
  8
_0-1_レイヤ___1
  6
CONTINUOUS
 62
    7
 10
409.93973
 20
406.29876000000002
 11
409.55869999999999
 21
406.80605000000003
  0
LINE
  8
_0-1_レイヤ___1
  6
CONTINUOUS
 62
    7
 10
409.55869999999999
 20
406.80605000000003
 11
409.13495
 21
407.27199999999999
  0
LINE
  8
_0-1_レイヤ___1
  6
CONTINUOUS
 62
    7
 10
409.13495
 20
407.27199999999999
 11
408.66951999999998
 21
407.73811999999998
  0
LINE
  8
_0-1_レイヤ___1
  6
CONTINUOUS
 62
    7
 10
448.46382
 20
285.69112999999999
 11
450.36860999999999
 21
275.86916000000002
  0
LINE
  8
_0-1_レイヤ___1
  6
CONTINUOUS
 62
    7
 10
450.36860999999999
 20
275.86916000000002
 11
453.28557000000001
 21
276.41933999999998
  0
LINE
  8
_0-1_レイヤ___1
  6
CONTINUOUS
 62
    7
 10
448.46382
 20
285.69112999999999
 11
451.43004999999999
 21
286.24097
  0
LINE
  8
_0-1_レイヤ___1
  6
CONTINUOUS
 62
    7
 10
451.43004999999999
 20
286.24097
 11
450.74930000000001
 21
289.45834000000002
  0
LINE
  8
_0-1_レイヤ___1
  6
CONTINUOUS
 62
    7
 10
450.74930000000001
 20
289.45834000000002
 11
450.06819999999999
 21
292.63333999999998
  0
LINE
  8
_0-1_レイヤ___1
  6
CONTINUOUS
 62
    7
 10
450.06819999999999
 20
292.63333999999998
 11
449.39605999999998
 21
295.85072000000002
  0
LINE
  8
_0-1_レイヤ___1
  6
CONTINUOUS
 62
    7
 10
449.39605999999998
 20
295.85072000000002
 11
448.67466000000002
 21
299.02605999999997
  0
LINE
  8
_0-1_レイヤ___1
  6
CONTINUOUS
 62
    7
 10
448.67466000000002
 20
299.02605999999997
 11
447.95359999999999
 21
302.20037000000002
  0
LINE
  8
_0-1_レイヤ___1
  6
CONTINUOUS
 62
    7
 10
447.95359999999999
 20
302.20037000000002
 11
447.19258000000002
 21
305.37536999999998
  0
LINE
  8
_0-1_レイヤ___1
  6
CONTINUOUS
 62
    7
 10
447.19258000000002
 20
305.37536999999998
 11
446.43052
 21
308.55036999999999
  0
LINE
  8
_0-1_レイヤ___1
  6
CONTINUOUS
 62
    7
 10
446.43052
 20
308.55036999999999
 11
445.62678
 21
311.72572000000002
  0
LINE
  8
_0-1_レイヤ___1
  6
CONTINUOUS
 62
    7
 10
445.62678
 20
311.72572000000002
 11
444.82234999999997
 21
314.90071999999998
  0
LINE
  8
_0-1_レイヤ___1
  6
CONTINUOUS
 62
    7
 10
444.82234999999997
 20
314.90071999999998
 11
444.01826999999997
 21
318.07571999999999
  0
LINE
  8
_0-1_レイヤ___1
  6
CONTINUOUS
 62
    7
 10
444.01826999999997
 20
318.07571999999999
 11
443.17111999999997
 21
321.20800000000003
  0
LINE
  8
_0-1_レイヤ___1
  6
CONTINUOUS
 62
    7
 10
443.17111999999997
 20
321.20800000000003
 11
442.36633999999998
 21
324.38299999999998
  0
LINE
  8
_0-1_レイヤ___1
  6
CONTINUOUS
 62
    7
 10
442.36633999999998
 20
324.38299999999998
 11
441.47751
 21
327.51596999999998
  0
LINE
  8
_0-1_レイヤ___1
  6
CONTINUOUS
 62
    7
 10
441.47751
 20
327.51596999999998
 11
440.63071000000002
 21
330.69130999999999
  0
LINE
  8
_0-1_レイヤ___1
  6
CONTINUOUS
 62
    7
 10
440.63071000000002
 20
330.69130999999999
 11
439.74153000000001
 21
333.82324999999997
  0
LINE
  8
_0-1_レイヤ___1
  6
CONTINUOUS
 62
    7
 10
439.74153000000001
 20
333.82324999999997
 11
438.85304000000002
 21
336.95621999999997
  0
LINE
  8
_0-1_レイヤ___1
  6
CONTINUOUS
 62
    7
 10
458.36709000000002
 20
224.47626
 11
461.29232000000002
 21
224.85763
  0
LINE
  8
_0-1_レイヤ___1
  6
CONTINUOUS
 62
    7
 10
462.55667
 20
214.95160999999999
 11
459.59870999999998
 21
214.57058000000001
  0
LINE
  8
_0-1_レイヤ___1
  6
CONTINUOUS
 62
    7
 10
459.59870999999998
 20
214.57058000000001
 11
458.36709000000002
 21
224.47626
  0
LINE
  8
_0-1_レイヤ___1
  6
CONTINUOUS
 62
    7
 10
461.29232000000002
 20
224.85763
 11
460.40141999999997
 21
231.33440999999999
  0
LINE
  8
_0-1_レイヤ___1
  6
CONTINUOUS
 62
    7
 10
460.40141999999997
 20
231.33440999999999
 11
459.46917999999999
 21
237.76916
  0
LINE
  8
_0-1_レイヤ___1
  6
CONTINUOUS
 62
    7
 10
459.46917999999999
 20
237.76916
 11
458.49662999999998
 21
244.24662999999998
  0
LINE
  8
_0-1_レイヤ___1
  6
CONTINUOUS
 62
    7
 10
458.49662999999998
 20
244.24662999999998
 11
457.52442000000002
 21
250.68104
  0
LINE
  8
_0-1_レイヤ___1
  6
CONTINUOUS
 62
    7
 10
457.52442000000002
 20
250.68104
 11
456.50295
 21
257.11579
  0
LINE
  8
_0-1_レイヤ___1
  6
CONTINUOUS
 62
    7
 10
456.50295
 20
257.11579
 11
455.49009000000001
 21
263.54984999999999
  0
LINE
  8
_0-1_レイヤ___1
  6
CONTINUOUS
 62
    7
 10
455.49009000000001
 20
263.54984999999999
 11
454.93921999999998
 21
266.76722000000001
  0
LINE
  8
_0-1_レイヤ___1
  6
CONTINUOUS
 62
    7
 10
454.93921999999998
 20
266.76722000000001
 11
454.42831000000001
 21
269.9846
  0
LINE
  8
_0-1_レイヤ___1
  6
CONTINUOUS
 62
    7
 10
454.42831000000001
 20
269.9846
 11
453.88537000000002
 21
273.20197000000002
  0
LINE
  8
_0-1_レイヤ___1
  6
CONTINUOUS
 62
    7
 10
453.88537000000002
 20
273.20197000000002
 11
453.28557000000001
 21
276.41933999999998
  0
LINE
  8
_0-1_レイヤ___1
  6
CONTINUOUS
 62
    7
 10
433.13797
 20
345.71951000000001
 11
435.97431
 21
336.10975999999999
  0
LINE
  8
_0-1_レイヤ___1
  6
CONTINUOUS
 62
    7
 10
435.97431
 20
336.10975999999999
 11
438.85304000000002
 21
336.95621999999997
  0
LINE
  8
_0-1_レイヤ___1
  6
CONTINUOUS
 62
    7
 10
433.13797
 20
345.71951000000001
 11
436.01738
 21
346.56596999999999
  0
LINE
  8
_0-1_レイヤ___1
  6
CONTINUOUS
 62
    7
 10
436.01738
 20
346.56596999999999
 11
435.04275999999999
 21
349.69824999999997
  0
LINE
  8
_0-1_レイヤ___1
  6
CONTINUOUS
 62
    7
 10
435.04275999999999
 20
349.69824999999997
 11
434.06986999999998
 21
352.78919000000002
  0
LINE
  8
_0-1_レイヤ___1
  6
CONTINUOUS
 62
    7
 10
434.06986999999998
 20
352.78919000000002
 11
433.05356
 21
355.92129999999997
  0
LINE
  8
_0-1_レイヤ___1
  6
CONTINUOUS
 62
    7
 10
433.05356
 20
355.92129999999997
 11
432.03726
 21
359.01206000000002
  0
LINE
  8
_0-1_レイヤ___1
  6
CONTINUOUS
 62
    7
 10
432.03726
 20
359.01206000000002
 11
430.97892999999999
 21
362.10196999999999
  0
LINE
  8
_0-1_レイヤ___1
  6
CONTINUOUS
 62
    7
 10
430.97892999999999
 20
362.10196999999999
 11
429.92059
 21
365.19308000000001
  0
LINE
  8
_0-1_レイヤ___1
  6
CONTINUOUS
 62
    7
 10
429.92059
 20
365.19308000000001
 11
429.37007
 21
366.75871000000001
  0
LINE
  8
_0-1_レイヤ___1
  6
CONTINUOUS
 62
    7
 10
429.37007
 20
366.75871000000001
 11
428.81988000000001
 21
368.28298999999998
  0
LINE
  8
_0-1_レイヤ___1
  6
CONTINUOUS
 62
    7
 10
428.81988000000001
 20
368.28298999999998
 11
428.2697
 21
369.80658
  0
LINE
  8
_0-1_レイヤ___1
  6
CONTINUOUS
 62
    7
 10
428.2697
 20
369.80658
 11
427.67748999999998
 21
371.37306999999998
  0
LINE
  8
_0-1_レイヤ___1
  6
CONTINUOUS
 62
    7
 10
427.67748999999998
 20
371.37306999999998
 11
427.12731000000002
 21
372.89735000000002
  0
LINE
  8
_0-1_レイヤ___1
  6
CONTINUOUS
 62
    7
 10
427.12731000000002
 20
372.89735000000002
 11
426.53372000000002
 21
374.42093999999997
  0
LINE
  8
_0-1_レイヤ___1
  6
CONTINUOUS
 62
    7
 10
426.53372000000002
 20
374.42093999999997
 11
425.94150999999999
 21
375.94540000000001
  0
LINE
  8
_0-1_レイヤ___1
  6
CONTINUOUS
 62
    7
 10
425.94150999999999
 20
375.94540000000001
 11
425.34930000000003
 21
377.46967999999998
  0
LINE
  8
_0-1_レイヤ___1
  6
CONTINUOUS
 62
    7
 10
425.34930000000003
 20
377.46967999999998
 11
424.71402
 21
378.99293
  0
LINE
  8
_0-1_レイヤ___1
  6
CONTINUOUS
 62
    7
 10
424.71402
 20
378.99293
 11
424.12112000000002
 21
380.47465999999997
  0
LINE
  8
_0-1_レイヤ___1
  6
CONTINUOUS
 62
    7
 10
424.12112000000002
 20
380.47465999999997
 11
423.48584
 21
381.99912
  0
LINE
  8
_0-1_レイヤ___1
  6
CONTINUOUS
 62
    7
 10
423.48584
 20
381.99912
 11
422.85160000000002
 21
383.52339999999998
  0
LINE
  8
_0-1_レイヤ___1
  6
CONTINUOUS
 62
    7
 10
422.85160000000002
 20
383.52339999999998
 11
422.17394999999999
 21
385.00461999999999
  0
LINE
  8
_0-1_レイヤ___1
  6
CONTINUOUS
 62
    7
 10
422.17394999999999
 20
385.00461999999999
 11
421.49664000000001
 21
386.48601000000002
  0
LINE
  8
_0-1_レイヤ___1
  6
CONTINUOUS
 62
    7
 10
421.49664000000001
 20
386.48601000000002
 11
420.81898999999999
 21
387.96843999999999
  0
LINE
  8
_0-1_レイヤ___1
  6
CONTINUOUS
 62
    7
 10
420.81898999999999
 20
387.96843999999999
 11
420.14134000000001
 21
389.44965999999999
  0
LINE
  8
_0-1_レイヤ___1
  6
CONTINUOUS
 62
    7
 10
420.14134000000001
 20
389.44965999999999
 11
419.42201
 21
390.93105000000003
  0
LINE
  8
_0-1_レイヤ___1
  6
CONTINUOUS
 62
    7
 10
419.42201
 20
390.93105000000003
 11
418.70233000000002
 21
392.41329999999999
  0
LINE
  8
_0-1_レイヤ___1
  6
CONTINUOUS
 62
    7
 10
418.70233000000002
 20
392.41329999999999
 11
417.94062000000002
 21
393.85230999999999
  0
LINE
  8
_0-1_レイヤ___1
  6
CONTINUOUS
 62
    7
 10
417.94062000000002
 20
393.85230999999999
 11
417.17856
 21
395.29167999999999
  0
LINE
  8
_0-1_レイヤ___1
  6
CONTINUOUS
 62
    7
 10
420.98849000000001
 20
-187.08793000000003
 11
421.58071000000001
 21
-177.09715
  0
LINE
  8
_0-1_レイヤ___1
  6
CONTINUOUS
 62
    7
 10
421.58071000000001
 20
-177.09715
 11
424.58654999999999
 21
-177.26665
  0
LINE
  8
_0-1_レイヤ___1
  6
CONTINUOUS
 62
    7
 10
423.99434000000002
 20
-187.25742000000002
 11
420.98849000000001
 21
-187.08793000000003
  0
LINE
  8
_0-1_レイヤ___1
  6
CONTINUOUS
 62
    7
 10
430.38637
 20
-30.835624999999993
 11
430.97892999999999
 21
-20.845537100000001
  0
LINE
  8
_0-1_レイヤ___1
  6
CONTINUOUS
 62
    7
 10
430.97892999999999
 20
-20.845537100000001
 11
433.98442999999997
 21
-21.015035100000006
  0
LINE
  8
_0-1_レイヤ___1
  6
CONTINUOUS
 62
    7
 10
433.39222000000001
 20
-31.005122999999998
 11
430.38637
 21
-30.835624999999993
  0
LINE
  8
_0-1_レイヤ___1
  6
CONTINUOUS
 62
    7
 10
439.78458999999998
 20
125.41598999999999
 11
440.41917999999998
 21
135.40745000000001
  0
LINE
  8
_0-1_レイヤ___1
  6
CONTINUOUS
 62
    7
 10
440.41917999999998
 20
135.40745000000001
 11
443.42468000000002
 21
135.19488999999999
  0
LINE
  8
_0-1_レイヤ___1
  6
CONTINUOUS
 62
    7
 10
442.79009000000002
 20
125.24752000000001
 11
439.78458999999998
 21
125.41598999999999
  0
LINE
  8
_0-1_レイヤ___1
  6
CONTINUOUS
 62
    7
 10
443.42468000000002
 20
135.19488999999999
 11
443.72163999999998
 21
140.61403000000001
  0
LINE
  8
_0-1_レイヤ___1
  6
CONTINUOUS
 62
    7
 10
433.98442999999997
 20
-21.015035100000006
 11
442.79009000000002
 21
125.24752000000001
  0
LINE
  8
_0-1_レイヤ___1
  6
CONTINUOUS
 62
    7
 10
424.58654999999999
 20
-177.26665
 11
433.39222000000001
 21
-31.005122999999998
  0
LINE
  8
_0-1_レイヤ___1
  6
CONTINUOUS
 62
    7
 10
423.99434000000002
 20
-187.25742000000002
 11
423.69736999999998
 21
-192.25350000000003
  0
LINE
  8
_0-1_レイヤ___1
  6
CONTINUOUS
 62
    7
 10
404.56331
 20
131.04665
 11
395.03796999999997
 21
127.95674
  0
LINE
  8
_0-1_レイヤ___1
  6
CONTINUOUS
 62
    7
 10
395.03796999999997
 20
127.95674
 11
395.96917999999999
 21
125.12039999999999
  0
LINE
  8
_0-1_レイヤ___1
  6
CONTINUOUS
 62
    7
 10
405.49452000000002
 20
128.21029999999999
 11
404.56331
 21
131.04665
  0
LINE
  8
_0-1_レイヤ___1
  6
CONTINUOUS
 62
    7
 10
448.37459000000001
 20
142.13779
 11
447.44682999999998
 21
144.97414000000001
  0
LINE
  8
_0-1_レイヤ___1
  6
CONTINUOUS
 62
    7
 10
447.44682999999998
 20
144.97414000000001
 11
456.93290000000002
 21
148.06507999999999
  0
LINE
  8
_0-1_レイヤ___1
  6
CONTINUOUS
 62
    7
 10
456.93290000000002
 20
148.06507999999999
 11
457.86444999999998
 21
145.22838999999999
  0
LINE
  8
_0-1_レイヤ___1
  6
CONTINUOUS
 62
    7
 10
457.86444999999998
 20
145.22838999999999
 11
465.60351000000003
 21
147.72608
  0
LINE
  8
_0-1_レイヤ___1
  6
CONTINUOUS
 62
    7
 10
405.49452000000002
 20
128.21029999999999
 11
395.96917999999999
 21
125.12039999999999
  0
LINE
  8
_0-1_レイヤ___1
  6
CONTINUOUS
 62
    7
 10
412.02845000000002
 20
-202.09537
 11
383.03005000000002
 21
-202.09537
  0
LINE
  8
_0-1_レイヤ___1
  6
CONTINUOUS
 62
    7
 10
383.03005000000002
 20
-202.09537
 11
383.03005000000002
 21
-221.06130999999999
  0
LINE
  8
_0-1_レイヤ___1
  6
CONTINUOUS
 62
    7
 10
383.03005000000002
 20
-221.06130999999999
 11
412.02845000000002
 21
-221.06130999999999
  0
LINE
  8
_0-1_レイヤ___1
  6
CONTINUOUS
 62
    7
 10
412.02845000000002
 20
-221.06130999999999
 11
412.02845000000002
 21
-202.09537
  0
LINE
  8
_0-1_レイヤ___1
  6
CONTINUOUS
 62
    7
 10
412.02845000000002
 20
-202.09537
 11
383.03005000000002
 21
-202.09537
  0
LINE
  8
_0-1_レイヤ___1
  6
CONTINUOUS
 62
    7
 10
383.03005000000002
 20
-202.09537
 11
383.03005000000002
 21
-221.06130999999999
  0
LINE
  8
_0-1_レイヤ___1
  6
CONTINUOUS
 62
    7
 10
383.03005000000002
 20
-221.06130999999999
 11
412.02845000000002
 21
-221.06130999999999
  0
LINE
  8
_0-1_レイヤ___1
  6
CONTINUOUS
 62
    7
 10
412.02845000000002
 20
-221.06130999999999
 11
412.02845000000002
 21
-202.09537
  0
LINE
  8
_0-1_レイヤ___1
  6
CONTINUOUS
 62
    7
 10
433.09537999999998
 20
-194.11666000000002
 11
433.68691000000001
 21
-184.12657000000002
  0
LINE
  8
_0-1_レイヤ___1
  6
CONTINUOUS
 62
    7
 10
433.68691000000001
 20
-184.12657000000002
 11
436.69378999999998
 21
-184.29606999999999
  0
LINE
  8
_0-1_レイヤ___1
  6
CONTINUOUS
 62
    7
 10
436.10192000000001
 20
-194.28683999999998
 11
433.09537999999998
 21
-194.11666000000002
  0
LINE
  8
_0-1_レイヤ___1
  6
CONTINUOUS
 62
    7
 10
442.49567000000002
 20
-37.8650442
 11
443.08753999999999
 21
-27.873578300000005
  0
LINE
  8
_0-1_レイヤ___1
  6
CONTINUOUS
 62
    7
 10
443.08753999999999
 20
-27.873578300000005
 11
446.09406999999999
 21
-28.085796299999998
  0
LINE
  8
_0-1_レイヤ___1
  6
CONTINUOUS
 62
    7
 10
445.50254999999999
 20
-38.034543200000002
 11
442.49567000000002
 21
-37.8650442
  0
LINE
  8
_0-1_レイヤ___1
  6
CONTINUOUS
 62
    7
 10
451.88837999999998
 20
118.38759999999999
 11
452.52882
 21
128.33635000000001
  0
LINE
  8
_0-1_レイヤ___1
  6
CONTINUOUS
 62
    7
 10
452.52882
 20
128.33635000000001
 11
455.48644000000002
 21
128.16685000000001
  0
LINE
  8
_0-1_レイヤ___1
  6
CONTINUOUS
 62
    7
 10
454.89490999999998
 20
118.17607000000001
 11
451.88837999999998
 21
118.38759999999999
  0
LINE
  8
_0-1_レイヤ___1
  6
CONTINUOUS
 62
    7
 10
474.70903999999996
 20
131.34184999999999
 11
455.78649999999999
 21
133.16189
  0
LINE
  8
_0-1_レイヤ___1
  6
CONTINUOUS
 62
    7
 10
454.77364999999998
 20
-200.25581999999997
 11
455.06509999999997
 21
-195.42923999999999
  0
LINE
  8
_0-1_レイヤ___1
  6
CONTINUOUS
 62
    7
 10
474.70903999999996
 20
131.34184999999999
 11
474.70903999999996
 21
131.12962999999999
  0
LINE
  8
_0-1_レイヤ___1
  6
CONTINUOUS
 62
    7
 10
455.78649999999999
 20
133.16189
 11
455.48644000000002
 21
128.16685000000001
  0
LINE
  8
_0-1_レイヤ___1
  6
CONTINUOUS
 62
    7
 10
435.80219
 20
-199.28154000000001
 11
454.77364999999998
 21
-200.42532
  0
LINE
  8
_0-1_レイヤ___1
  6
CONTINUOUS
 62
    7
 10
454.77364999999998
 20
-200.42532
 11
454.77364999999998
 21
-200.25581999999997
  0
LINE
  8
_0-1_レイヤ___1
  6
CONTINUOUS
 62
    7
 10
435.80219
 20
-199.11203999999998
 11
436.10192000000001
 21
-194.28683999999998
  0
LINE
  8
_0-1_レイヤ___1
  6
CONTINUOUS
 62
    7
 10
436.10192000000001
 20
-194.28683999999998
 11
435.80219
 21
-199.28154000000001
  0
LINE
  8
_0-1_レイヤ___1
  6
CONTINUOUS
 62
    7
 10
445.50254999999999
 20
-38.034543200000002
 11
436.69378999999998
 21
-184.29606999999999
  0
LINE
  8
_0-1_レイヤ___1
  6
CONTINUOUS
 62
    7
 10
454.89490999999998
 20
118.17607000000001
 11
446.09406999999999
 21
-28.085796299999998
  0
LINE
  8
_0-1_レイヤ___1
  6
CONTINUOUS
 62
    7
 10
458.66316
 20
-185.64999
 11
458.07164
 21
-195.59874000000002
  0
LINE
  8
_0-1_レイヤ___1
  6
CONTINUOUS
 62
    7
 10
458.07164
 20
-195.59874000000002
 11
455.06509999999997
 21
-195.42923999999999
  0
LINE
  8
_0-1_レイヤ___1
  6
CONTINUOUS
 62
    7
 10
458.66316
 20
-185.64999
 11
455.65697
 21
-185.43845999999996
  0
LINE
  8
_0-1_レイヤ___1
  6
CONTINUOUS
 62
    7
 10
464.46573000000001
 20
-39.176937199999998
 11
467.47226999999998
 21
-39.388465199999999
  0
LINE
  8
_0-1_レイヤ___1
  6
CONTINUOUS
 62
    7
 10
465.05725999999999
 20
-29.228879300000003
 11
468.06378999999998
 21
-29.397688299999999
  0
LINE
  8
_0-1_レイヤ___1
  6
CONTINUOUS
 62
    7
 10
468.06378999999998
 20
-29.397688299999999
 11
467.47226999999998
 21
-39.388465199999999
  0
LINE
  8
_0-1_レイヤ___1
  6
CONTINUOUS
 62
    7
 10
473.85810000000004
 20
117.03299000000001
 11
476.86497999999995
 21
116.86314999999999
  0
LINE
  8
_0-1_レイヤ___1
  6
CONTINUOUS
 62
    7
 10
474.45789000000002
 20
127.02307999999999
 11
477.45650000000001
 21
126.85391999999999
  0
LINE
  8
_0-1_レイヤ___1
  6
CONTINUOUS
 62
    7
 10
477.45650000000001
 20
126.85391999999999
 11
476.86497999999995
 21
116.86314999999999
  0
LINE
  8
_0-1_レイヤ___1
  6
CONTINUOUS
 62
    7
 10
455.65697
 20
-185.43845999999996
 11
464.46573000000001
 21
-39.176937199999998
  0
LINE
  8
_0-1_レイヤ___1
  6
CONTINUOUS
 62
    7
 10
465.05725999999999
 20
-29.228879300000003
 11
473.85810000000004
 21
117.03299000000001
  0
LINE
  8
_0-1_レイヤ___1
  6
CONTINUOUS
 62
    7
 10
474.45789000000002
 20
127.02307999999999
 11
474.70903999999996
 21
131.34184999999999
  0
LINE
  8
_0-1_レイヤ___1
  6
CONTINUOUS
 62
    7
 10
368.52942999999999
 20
403.23917
 11
368.52942999999999
 21
388.25351999999998
  0
LINE
  8
_0-1_レイヤ___1
  6
CONTINUOUS
 62
    7
 10
368.52942999999999
 20
388.25351999999998
 11
351.55338
 21
388.25351999999998
  0
LINE
  8
_0-1_レイヤ___1
  6
CONTINUOUS
 62
    7
 10
351.55338
 20
388.25351999999998
 11
351.55338
 21
403.23917
  0
LINE
  8
_0-1_レイヤ___1
  6
CONTINUOUS
 62
    7
 10
351.55338
 20
403.23917
 11
368.52942999999999
 21
403.23917
  0
LINE
  8
_0-1_レイヤ___1
  6
CONTINUOUS
 62
    7
 10
368.52942999999999
 20
403.23917
 11
368.52942999999999
 21
388.25351999999998
  0
LINE
  8
_0-1_レイヤ___1
  6
CONTINUOUS
 62
    7
 10
368.52942999999999
 20
388.25351999999998
 11
351.55338
 21
388.25351999999998
  0
LINE
  8
_0-1_レイヤ___1
  6
CONTINUOUS
 62
    7
 10
351.55338
 20
388.25351999999998
 11
351.55338
 21
403.23917
  0
LINE
  8
_0-1_レイヤ___1
  6
CONTINUOUS
 62
    7
 10
351.55338
 20
403.23917
 11
368.52942999999999
 21
403.23917
  0
LINE
  8
_0-1_レイヤ___1
  6
CONTINUOUS
 62
    7
 10
474.43967999999995
 20
140.82150999999999
 11
474.43967999999995
 21
145.8169
  0
LINE
  8
_0-1_レイヤ___1
  6
CONTINUOUS
 62
    7
 10
474.39936999999998
 20
410.06209999999999
 11
489.38346999999999
 21
410.01902999999999
  0
LINE
  8
_0-1_レイヤ___1
  6
CONTINUOUS
 62
    7
 10
489.38346999999999
 20
410.01902999999999
 11
489.93469000000005
 21
407.56457
  0
LINE
  8
_0-1_レイヤ___1
  6
CONTINUOUS
 62
    7
 10
489.93469000000005
 20
407.56457
 11
490.48555999999996
 21
405.15111000000002
  0
LINE
  8
_0-1_レイヤ___1
  6
CONTINUOUS
 62
    7
 10
513.25764000000004
 20
140.82150999999999
 11
498.35415999999998
 21
140.82150999999999
  0
LINE
  8
_0-1_レイヤ___1
  6
CONTINUOUS
 62
    7
 10
471.43314999999996
 20
145.8169
 11
471.43314999999996
 21
155.84935999999999
  0
LINE
  8
_0-1_レイヤ___1
  6
CONTINUOUS
 62
    7
 10
471.43314999999996
 20
155.84935999999999
 11
474.43967999999995
 21
155.84935999999999
  0
LINE
  8
_0-1_レイヤ___1
  6
CONTINUOUS
 62
    7
 10
474.43967999999995
 20
145.8169
 11
471.43314999999996
 21
145.8169
  0
LINE
  8
_0-1_レイヤ___1
  6
CONTINUOUS
 62
    7
 10
474.39936999999998
 20
395.03304000000003
 11
471.39248999999995
 21
395.03304000000003
  0
LINE
  8
_0-1_レイヤ___1
  6
CONTINUOUS
 62
    7
 10
474.39936999999998
 20
405.02382
 11
471.39248999999995
 21
405.02382
  0
LINE
  8
_0-1_レイヤ___1
  6
CONTINUOUS
 62
    7
 10
471.39248999999995
 20
405.02382
 11
471.39248999999995
 21
395.03304000000003
  0
LINE
  8
_0-1_レイヤ___1
  6
CONTINUOUS
 62
    7
 10
474.39936999999998
 20
410.06209999999999
 11
474.39936999999998
 21
405.02382
  0
LINE
  8
_0-1_レイヤ___1
  6
CONTINUOUS
 62
    7
 10
474.43967999999995
 20
270.44632999999999
 11
471.43314999999996
 21
270.44632999999999
  0
LINE
  8
_0-1_レイヤ___1
  6
CONTINUOUS
 62
    7
 10
474.43967999999995
 20
280.43709999999999
 11
471.43314999999996
 21
280.43709999999999
  0
LINE
  8
_0-1_レイヤ___1
  6
CONTINUOUS
 62
    7
 10
471.43314999999996
 20
280.43709999999999
 11
471.43314999999996
 21
270.44632999999999
  0
LINE
  8
_0-1_レイヤ___1
  6
CONTINUOUS
 62
    7
 10
474.43967999999995
 20
270.44632999999999
 11
474.43967999999995
 21
218.12187
  0
LINE
  8
_0-1_レイヤ___1
  6
CONTINUOUS
 62
    7
 10
474.43967999999995
 20
280.43709999999999
 11
474.43967999999995
 21
332.76121000000001
  0
LINE
  8
_0-1_レイヤ___1
  6
CONTINUOUS
 62
    7
 10
471.43314999999996
 20
218.12187
 11
471.43314999999996
 21
208.13144
  0
LINE
  8
_0-1_レイヤ___1
  6
CONTINUOUS
 62
    7
 10
471.43314999999996
 20
208.13144
 11
474.43967999999995
 21
208.13144
  0
LINE
  8
_0-1_レイヤ___1
  6
CONTINUOUS
 62
    7
 10
471.43314999999996
 20
218.12187
 11
474.43967999999995
 21
218.12187
  0
LINE
  8
_0-1_レイヤ___1
  6
CONTINUOUS
 62
    7
 10
474.43967999999995
 20
208.13144
 11
474.43967999999995
 21
155.84935999999999
  0
LINE
  8
_0-1_レイヤ___1
  6
CONTINUOUS
 62
    7
 10
471.47379999999998
 20
342.75130000000001
 11
471.47379999999998
 21
332.76121000000001
  0
LINE
  8
_0-1_レイヤ___1
  6
CONTINUOUS
 62
    7
 10
471.47379999999998
 20
332.76121000000001
 11
474.43967999999995
 21
332.76121000000001
  0
LINE
  8
_0-1_レイヤ___1
  6
CONTINUOUS
 62
    7
 10
471.47379999999998
 20
342.75130000000001
 11
474.43967999999995
 21
342.75130000000001
  0
LINE
  8
_0-1_レイヤ___1
  6
CONTINUOUS
 62
    7
 10
474.43967999999995
 20
342.75130000000001
 11
474.43967999999995
 21
395.03304000000003
  0
LINE
  8
_0-1_レイヤ___1
  6
CONTINUOUS
 62
    7
 10
513.21732999999995
 20
155.84935999999999
 11
516.18286999999998
 21
155.84935999999999
  0
LINE
  8
_0-1_レイヤ___1
  6
CONTINUOUS
 62
    7
 10
516.18286999999998
 20
155.84935999999999
 11
516.18286999999998
 21
145.8169
  0
LINE
  8
_0-1_レイヤ___1
  6
CONTINUOUS
 62
    7
 10
516.18286999999998
 20
145.8169
 11
513.21732999999995
 21
145.8169
  0
LINE
  8
_0-1_レイヤ___1
  6
CONTINUOUS
 62
    7
 10
512.53624000000002
 20
203.51674
 11
515.54312000000004
 21
203.64420000000001
  0
LINE
  8
_0-1_レイヤ___1
  6
CONTINUOUS
 62
    7
 10
515.54312000000004
 20
203.64420000000001
 11
515.08078
 21
213.63463999999999
  0
LINE
  8
_0-1_レイヤ___1
  6
CONTINUOUS
 62
    7
 10
515.08078
 20
213.63463999999999
 11
512.03394000000003
 21
213.50819999999999
  0
LINE
  8
_0-1_レイヤ___1
  6
CONTINUOUS
 62
    7
 10
513.21732999999995
 20
145.8169
 11
513.25764000000004
 21
140.82150999999999
  0
LINE
  8
_0-1_レイヤ___1
  6
CONTINUOUS
 62
    7
 10
512.53624000000002
 20
203.51674
 11
512.79565000000002
 21
197.59048000000001
  0
LINE
  8
_0-1_レイヤ___1
  6
CONTINUOUS
 62
    7
 10
512.79565000000002
 20
197.59048000000001
 11
512.91726000000006
 21
194.58464000000001
  0
LINE
  8
_0-1_レイヤ___1
  6
CONTINUOUS
 62
    7
 10
512.91726000000006
 20
194.58464000000001
 11
513.00615000000005
 21
191.57912999999999
  0
LINE
  8
_0-1_レイヤ___1
  6
CONTINUOUS
 62
    7
 10
513.00615000000005
 20
191.57912999999999
 11
513.08744999999999
 21
188.61600999999999
  0
LINE
  8
_0-1_レイヤ___1
  6
CONTINUOUS
 62
    7
 10
513.08744999999999
 20
188.61600999999999
 11
513.13603000000001
 21
185.65253999999999
  0
LINE
  8
_0-1_レイヤ___1
  6
CONTINUOUS
 62
    7
 10
513.13603000000001
 20
185.65253999999999
 11
513.17668000000003
 21
182.64669000000001
  0
LINE
  8
_0-1_レイヤ___1
  6
CONTINUOUS
 62
    7
 10
513.17668000000003
 20
182.64669000000001
 11
513.21732999999995
 21
179.68322000000001
  0
LINE
  8
_0-1_レイヤ___1
  6
CONTINUOUS
 62
    7
 10
513.21732999999995
 20
179.68322000000001
 11
513.25764000000004
 21
176.72044
  0
LINE
  8
_0-1_レイヤ___1
  6
CONTINUOUS
 62
    7
 10
513.25764000000004
 20
176.72044
 11
513.25764000000004
 21
167.78799000000001
  0
LINE
  8
_0-1_レイヤ___1
  6
CONTINUOUS
 62
    7
 10
513.25764000000004
 20
167.78799000000001
 11
513.21732999999995
 21
161.81868
  0
LINE
  8
_0-1_レイヤ___1
  6
CONTINUOUS
 62
    7
 10
513.21732999999995
 20
161.81868
 11
513.21732999999995
 21
155.84935999999999
  0
LINE
  8
_0-1_レイヤ___1
  6
CONTINUOUS
 62
    7
 10
507.29280000000006
 20
280.98728999999997
 11
510.29967999999997
 21
281.24119000000002
  0
LINE
  8
_0-1_レイヤ___1
  6
CONTINUOUS
 62
    7
 10
510.29967999999997
 20
281.24119000000002
 11
511.10203999999999
 21
271.29279000000002
  0
LINE
  8
_0-1_レイヤ___1
  6
CONTINUOUS
 62
    7
 10
511.10203999999999
 20
271.29279000000002
 11
508.13581999999997
 21
271.03922999999998
  0
LINE
  8
_0-1_レイヤ___1
  6
CONTINUOUS
 62
    7
 10
508.13581999999997
 20
271.03922999999998
 11
508.68669
 21
263.88479999999998
  0
LINE
  8
_0-1_レイヤ___1
  6
CONTINUOUS
 62
    7
 10
508.68669
 20
263.88479999999998
 11
508.93817999999999
 21
260.28674000000001
  0
LINE
  8
_0-1_レイヤ___1
  6
CONTINUOUS
 62
    7
 10
508.93817999999999
 20
260.28674000000001
 11
509.19758999999999
 21
256.64528000000001
  0
LINE
  8
_0-1_レイヤ___1
  6
CONTINUOUS
 62
    7
 10
509.19758999999999
 20
256.64528000000001
 11
509.44874000000004
 21
253.04755999999998
  0
LINE
  8
_0-1_レイヤ___1
  6
CONTINUOUS
 62
    7
 10
509.44874000000004
 20
253.04755999999998
 11
509.69988999999998
 21
249.44916000000001
  0
LINE
  8
_0-1_レイヤ___1
  6
CONTINUOUS
 62
    7
 10
509.69988999999998
 20
249.44916000000001
 11
510.21045000000004
 21
242.29404
  0
LINE
  8
_0-1_レイヤ___1
  6
CONTINUOUS
 62
    7
 10
510.21045000000004
 20
242.29404
 11
510.72136
 21
235.09827000000001
  0
LINE
  8
_0-1_レイヤ___1
  6
CONTINUOUS
 62
    7
 10
510.72136
 20
235.09827000000001
 11
511.18299999999999
 21
227.90078
  0
LINE
  8
_0-1_レイヤ___1
  6
CONTINUOUS
 62
    7
 10
511.18299999999999
 20
227.90078
 11
511.60433999999998
 21
220.70432
  0
LINE
  8
_0-1_レイヤ___1
  6
CONTINUOUS
 62
    7
 10
511.60433999999998
 20
220.70432
 11
512.03394000000003
 21
213.50819999999999
  0
LINE
  8
_0-1_レイヤ___1
  6
CONTINUOUS
 62
    7
 10
499.92650000000003
 20
348.25484
 11
502.93303000000003
 21
348.63569999999999
  0
LINE
  8
_0-1_レイヤ___1
  6
CONTINUOUS
 62
    7
 10
502.93303000000003
 20
348.63569999999999
 11
504.15673000000004
 21
338.68747000000002
  0
LINE
  8
_0-1_レイヤ___1
  6
CONTINUOUS
 62
    7
 10
504.15673000000004
 20
338.68747000000002
 11
501.19084999999995
 21
338.30644000000001
  0
LINE
  8
_0-1_レイヤ___1
  6
CONTINUOUS
 62
    7
 10
501.19084999999995
 20
338.30644000000001
 11
502.04178999999999
 21
331.15235999999999
  0
LINE
  8
_0-1_レイヤ___1
  6
CONTINUOUS
 62
    7
 10
502.04178999999999
 20
331.15235999999999
 11
502.88480000000004
 21
323.99826999999999
  0
LINE
  8
_0-1_レイヤ___1
  6
CONTINUOUS
 62
    7
 10
502.88480000000004
 20
323.99826999999999
 11
503.69509000000005
 21
316.84417999999999
  0
LINE
  8
_0-1_レイヤ___1
  6
CONTINUOUS
 62
    7
 10
503.69509000000005
 20
316.84417999999999
 11
504.49711000000002
 21
309.64668999999998
  0
LINE
  8
_0-1_レイヤ___1
  6
CONTINUOUS
 62
    7
 10
504.49711000000002
 20
309.64668999999998
 11
505.21884999999997
 21
302.49295000000001
  0
LINE
  8
_0-1_レイヤ___1
  6
CONTINUOUS
 62
    7
 10
505.21884999999997
 20
302.49295000000001
 11
505.93164000000002
 21
295.33852000000002
  0
LINE
  8
_0-1_レイヤ___1
  6
CONTINUOUS
 62
    7
 10
505.93164000000002
 20
295.33852000000002
 11
506.65305000000001
 21
288.14136999999999
  0
LINE
  8
_0-1_レイヤ___1
  6
CONTINUOUS
 62
    7
 10
506.65305000000001
 20
288.14136999999999
 11
507.29280000000006
 21
280.98728999999997
  0
LINE
  8
_0-1_レイヤ___1
  6
CONTINUOUS
 62
    7
 10
493.36256000000003
 20
405.74349999999998
 11
495.39653999999996
 21
395.96442000000002
  0
LINE
  8
_0-1_レイヤ___1
  6
CONTINUOUS
 62
    7
 10
495.39653999999996
 20
395.96442000000002
 11
492.47096999999997
 21
395.37204000000003
  0
LINE
  8
_0-1_レイヤ___1
  6
CONTINUOUS
 62
    7
 10
490.48555999999996
 20
405.15111000000002
 11
493.36256000000003
 21
405.74349999999998
  0
LINE
  8
_0-1_レイヤ___1
  6
CONTINUOUS
 62
    7
 10
492.47096999999997
 20
395.37204000000003
 11
493.06249000000003
 21
392.40839
  0
LINE
  8
_0-1_レイヤ___1
  6
CONTINUOUS
 62
    7
 10
493.06249000000003
 20
392.40839
 11
493.57304999999997
 21
389.48781000000002
  0
LINE
  8
_0-1_レイヤ___1
  6
CONTINUOUS
 62
    7
 10
493.57304999999997
 20
389.48781000000002
 11
494.12427000000002
 21
386.56706000000003
  0
LINE
  8
_0-1_レイヤ___1
  6
CONTINUOUS
 62
    7
 10
494.12427000000002
 20
386.56706000000003
 11
494.63482999999997
 21
383.60342000000003
  0
LINE
  8
_0-1_レイヤ___1
  6
CONTINUOUS
 62
    7
 10
494.63482999999997
 20
383.60342000000003
 11
495.13747000000001
 21
380.68214999999998
  0
LINE
  8
_0-1_レイヤ___1
  6
CONTINUOUS
 62
    7
 10
495.13747000000001
 20
380.68214999999998
 11
495.60703999999998
 21
377.76139999999998
  0
LINE
  8
_0-1_レイヤ___1
  6
CONTINUOUS
 62
    7
 10
495.60703999999998
 20
377.76139999999998
 11
496.11760000000004
 21
374.79775000000001
  0
LINE
  8
_0-1_レイヤ___1
  6
CONTINUOUS
 62
    7
 10
496.11760000000004
 20
374.79775000000001
 11
496.57992999999999
 21
371.87716999999998
  0
LINE
  8
_0-1_レイヤ___1
  6
CONTINUOUS
 62
    7
 10
496.57992999999999
 20
371.87716999999998
 11
497.00091999999995
 21
368.91336000000001
  0
LINE
  8
_0-1_レイヤ___1
  6
CONTINUOUS
 62
    7
 10
497.00091999999995
 20
368.91336000000001
 11
497.47118
 21
365.95075000000003
  0
LINE
  8
_0-1_レイヤ___1
  6
CONTINUOUS
 62
    7
 10
497.47118
 20
365.95075000000003
 11
497.89251000000002
 21
362.9871
  0
LINE
  8
_0-1_レイヤ___1
  6
CONTINUOUS
 62
    7
 10
497.89251000000002
 20
362.9871
 11
498.31419000000005
 21
360.06652000000003
  0
LINE
  8
_0-1_レイヤ___1
  6
CONTINUOUS
 62
    7
 10
498.31419000000005
 20
360.06652000000003
 11
498.73518000000001
 21
357.14474000000001
  0
LINE
  8
_0-1_レイヤ___1
  6
CONTINUOUS
 62
    7
 10
498.73518000000001
 20
357.14474000000001
 11
499.11621000000002
 21
354.18144000000001
  0
LINE
  8
_0-1_レイヤ___1
  6
CONTINUOUS
 62
    7
 10
499.11621000000002
 20
354.18144000000001
 11
499.92650000000003
 21
348.25484
  0
LINE
  8
_0-1_レイヤ___1
  6
CONTINUOUS
 62
    7
 10
498.35415999999998
 20
140.82150999999999
 11
498.35415999999998
 21
143.82736
  0
LINE
  8
_0-1_レイヤ___1
  6
CONTINUOUS
 62
    7
 10
488.37027
 20
140.82150999999999
 11
488.37027
 21
143.82736
  0
LINE
  8
_0-1_レイヤ___1
  6
CONTINUOUS
 62
    7
 10
488.37027
 20
143.82736
 11
498.35415999999998
 21
143.82736
  0
LINE
  8
_0-1_レイヤ___1
  6
CONTINUOUS
 62
    7
 10
488.37027
 20
140.82150999999999
 11
474.43967999999995
 21
140.82150999999999
  0
LINE
  8
_0-1_レイヤ___1
  6
CONTINUOUS
 62
    7
 10
487.16477999999995
 20
133.89389
 11
539.14333999999997
 21
117.63820000000001
  0
LINE
  8
_0-1_レイヤ___1
  6
CONTINUOUS
 62
    7
 10
539.14333999999997
 20
117.63820000000001
 11
539.14333999999997
 21
112.64281
  0
LINE
  8
_0-1_レイヤ___1
  6
CONTINUOUS
 62
    7
 10
539.14333999999997
 20
112.64281
 11
539.14333999999997
 21
117.63820000000001
  0
LINE
  8
_0-1_レイヤ___1
  6
CONTINUOUS
 62
    7
 10
539.14333999999997
 20
-198.29633999999999
 11
507.18146999999999
 21
-198.29633999999999
  0
LINE
  8
_0-1_レイヤ___1
  6
CONTINUOUS
 62
    7
 10
506.24923000000001
 20
-183.30948000000001
 11
497.44872999999995
 21
-37.047957100000005
  0
LINE
  8
_0-1_レイヤ___1
  6
CONTINUOUS
 62
    7
 10
509.25611000000004
 20
-183.13998000000004
 11
509.85590000000002
 21
-193.13076000000001
  0
LINE
  8
_0-1_レイヤ___1
  6
CONTINUOUS
 62
    7
 10
509.85590000000002
 20
-193.13076000000001
 11
506.84902
 21
-193.30025999999998
  0
LINE
  8
_0-1_レイヤ___1
  6
CONTINUOUS
 62
    7
 10
509.25611000000004
 20
-183.13998000000004
 11
506.24923000000001
 21
-183.30948000000001
  0
LINE
  8
_0-1_レイヤ___1
  6
CONTINUOUS
 62
    7
 10
499.86374000000001
 20
-26.888371199999995
 11
496.85685999999998
 21
-27.057869199999999
  0
LINE
  8
_0-1_レイヤ___1
  6
CONTINUOUS
 62
    7
 10
497.44872999999995
 20
-37.047957100000005
 11
500.45527000000004
 21
-36.878459100000001
  0
LINE
  8
_0-1_レイヤ___1
  6
CONTINUOUS
 62
    7
 10
500.45527000000004
 20
-36.878459100000001
 11
499.86374000000001
 21
-26.888371199999995
  0
LINE
  8
_0-1_レイヤ___1
  6
CONTINUOUS
 62
    7
 10
496.85685999999998
 20
-27.057869199999999
 11
488.04809999999998
 21
119.20469
  0
LINE
  8
_0-1_レイヤ___1
  6
CONTINUOUS
 62
    7
 10
491.05462999999997
 20
119.37315000000001
 11
490.46276999999998
 21
129.36462
  0
LINE
  8
_0-1_レイヤ___1
  6
CONTINUOUS
 62
    7
 10
490.46276999999998
 20
129.36462
 11
487.45658000000003
 21
129.15206000000001
  0
LINE
  8
_0-1_レイヤ___1
  6
CONTINUOUS
 62
    7
 10
487.45658000000003
 20
129.15206000000001
 11
487.16477999999995
 21
133.89389
  0
LINE
  8
_0-1_レイヤ___1
  6
CONTINUOUS
 62
    7
 10
491.05462999999997
 20
119.37315000000001
 11
488.04809999999998
 21
119.20469
  0
LINE
  8
_0-1_レイヤ___1
  6
CONTINUOUS
 62
    7
 10
506.84902
 20
-193.30025999999998
 11
507.18146999999999
 21
-198.29633999999999
  0
LINE
  8
_0-1_レイヤ___1
  6
CONTINUOUS
 62
    7
 10
539.14333999999997
 20
-188.30486999999999
 11
542.14988000000005
 21
-188.30486999999999
  0
LINE
  8
_0-1_レイヤ___1
  6
CONTINUOUS
 62
    7
 10
542.14988000000005
 20
-188.30486999999999
 11
542.14988000000005
 21
-198.29633999999999
  0
LINE
  8
_0-1_レイヤ___1
  6
CONTINUOUS
 62
    7
 10
542.14988000000005
 20
-198.29633999999999
 11
539.14333999999997
 21
-198.29633999999999
  0
LINE
  8
_0-1_レイヤ___1
  6
CONTINUOUS
 62
    7
 10
542.14988000000005
 20
-26.888371199999995
 11
542.14988000000005
 21
-36.878459100000001
  0
LINE
  8
_0-1_レイヤ___1
  6
CONTINUOUS
 62
    7
 10
542.14988000000005
 20
-36.878459100000001
 11
539.14333999999997
 21
-36.878459100000001
  0
LINE
  8
_0-1_レイヤ___1
  6
CONTINUOUS
 62
    7
 10
539.14333999999997
 20
-26.888371199999995
 11
542.14988000000005
 21
-26.888371199999995
  0
LINE
  8
_0-1_レイヤ___1
  6
CONTINUOUS
 62
    7
 10
539.14333999999997
 20
102.65135000000001
 11
542.14988000000005
 21
102.65135000000001
  0
LINE
  8
_0-1_レイヤ___1
  6
CONTINUOUS
 62
    7
 10
542.14988000000005
 20
102.65135000000001
 11
542.14988000000005
 21
112.64281
  0
LINE
  8
_0-1_レイヤ___1
  6
CONTINUOUS
 62
    7
 10
539.14333999999997
 20
102.65135000000001
 11
539.14333999999997
 21
-26.888371199999995
  0
LINE
  8
_0-1_レイヤ___1
  6
CONTINUOUS
 62
    7
 10
550.24095
 20
86.825800000000001
 11
550.24095
 21
71.924379999999999
  0
LINE
  8
_0-1_レイヤ___1
  6
CONTINUOUS
 62
    7
 10
550.24095
 20
71.924379999999999
 11
550.24095
 21
85.894589999999994
  0
LINE
  8
_0-1_レイヤ___1
  6
CONTINUOUS
 62
    7
 10
625.34024999999997
 20
47.032196999999996
 11
625.34024999999997
 21
61.934302000000002
  0
LINE
  8
_0-1_レイヤ___1
  6
CONTINUOUS
 62
    7
 10
550.24095
 20
47.032196999999996
 11
555.23324000000002
 21
47.032196999999996
  0
LINE
  8
_0-1_レイヤ___1
  6
CONTINUOUS
 62
    7
 10
625.29958999999997
 20
110.87119000000001
 11
620.55880000000002
 21
109.34742
  0
LINE
  8
_0-1_レイヤ___1
  6
CONTINUOUS
 62
    7
 10
625.34024999999997
 20
47.032196999999996
 11
625.34024999999997
 21
61.934302000000002
  0
LINE
  8
_0-1_レイヤ___1
  6
CONTINUOUS
 62
    7
 10
550.24095
 20
47.032196999999996
 11
555.23324000000002
 21
47.032196999999996
  0
LINE
  8
_0-1_レイヤ___1
  6
CONTINUOUS
 62
    7
 10
611.02896999999996
 20
106.29885999999999
 11
610.09672999999998
 21
109.17827
  0
LINE
  8
_0-1_レイヤ___1
  6
CONTINUOUS
 62
    7
 10
610.09672999999998
 20
109.17827
 11
619.62689999999998
 21
112.22614999999999
  0
LINE
  8
_0-1_レイヤ___1
  6
CONTINUOUS
 62
    7
 10
619.62689999999998
 20
112.22614999999999
 11
620.55880000000002
 21
109.34742
  0
LINE
  8
_0-1_レイヤ___1
  6
CONTINUOUS
 62
    7
 10
611.02896999999996
 20
106.29885999999999
 11
564.54430000000002
 21
91.398129999999995
  0
LINE
  8
_0-1_レイヤ___1
  6
CONTINUOUS
 62
    7
 10
564.54430000000002
 20
91.398129999999995
 11
563.62067000000002
 21
94.276510000000002
  0
LINE
  8
_0-1_レイヤ___1
  6
CONTINUOUS
 62
    7
 10
563.62067000000002
 20
94.276510000000002
 11
554.09050000000002
 21
91.228290000000001
  0
LINE
  8
_0-1_レイヤ___1
  6
CONTINUOUS
 62
    7
 10
554.09050000000002
 20
91.228290000000001
 11
555.02206000000001
 21
88.350260000000006
  0
LINE
  8
_0-1_レイヤ___1
  6
CONTINUOUS
 62
    7
 10
555.02206000000001
 20
88.350260000000006
 11
550.24095
 21
86.825800000000001
  0
LINE
  8
_0-1_レイヤ___1
  6
CONTINUOUS
 62
    7
 10
547.27507000000003
 20
61.934302000000002
 11
547.27507000000003
 21
71.924379999999999
  0
LINE
  8
_0-1_レイヤ___1
  6
CONTINUOUS
 62
    7
 10
547.27507000000003
 20
71.924379999999999
 11
550.24095
 21
71.924379999999999
  0
LINE
  8
_0-1_レイヤ___1
  6
CONTINUOUS
 62
    7
 10
547.27507000000003
 20
61.934302000000002
 11
550.24095
 21
61.934302000000002
  0
LINE
  8
_0-1_レイヤ___1
  6
CONTINUOUS
 62
    7
 10
550.24095
 20
61.934302000000002
 11
550.24095
 21
47.032196999999996
  0
LINE
  8
_0-1_レイヤ___1
  6
CONTINUOUS
 62
    7
 10
550.24095
 20
47.032196999999996
 11
550.24095
 21
61.934302000000002
  0
LINE
  8
_0-1_レイヤ___1
  6
CONTINUOUS
 62
    7
 10
565.26570000000004
 20
47.032196999999996
 11
565.26570000000004
 21
44.026695000000004
  0
LINE
  8
_0-1_レイヤ___1
  6
CONTINUOUS
 62
    7
 10
565.26570000000004
 20
44.026695000000004
 11
555.23324000000002
 21
44.026695000000004
  0
LINE
  8
_0-1_レイヤ___1
  6
CONTINUOUS
 62
    7
 10
555.23324000000002
 20
44.026695000000004
 11
555.23324000000002
 21
47.032196999999996
  0
LINE
  8
_0-1_レイヤ___1
  6
CONTINUOUS
 62
    7
 10
620.34002999999996
 20
47.032196999999996
 11
620.34002999999996
 21
44.026695000000004
  0
LINE
  8
_0-1_レイヤ___1
  6
CONTINUOUS
 62
    7
 10
620.34002999999996
 20
44.026695000000004
 11
610.30723
 21
44.026695000000004
  0
LINE
  8
_0-1_レイヤ___1
  6
CONTINUOUS
 62
    7
 10
610.30723
 20
44.026695000000004
 11
610.30723
 21
47.032196999999996
  0
LINE
  8
_0-1_レイヤ___1
  6
CONTINUOUS
 62
    7
 10
610.30723
 20
47.032196999999996
 11
565.26570000000004
 21
47.032196999999996
  0
LINE
  8
_0-1_レイヤ___1
  6
CONTINUOUS
 62
    7
 10
620.34002999999996
 20
47.032196999999996
 11
625.34024999999997
 21
47.032196999999996
  0
LINE
  8
_0-1_レイヤ___1
  6
CONTINUOUS
 62
    7
 10
625.29958999999997
 20
74.041049999999998
 11
628.30613000000005
 21
74.041049999999998
  0
LINE
  8
_0-1_レイヤ___1
  6
CONTINUOUS
 62
    7
 10
625.29958999999997
 20
84.031829999999999
 11
628.30613000000005
 21
84.031829999999999
  0
LINE
  8
_0-1_レイヤ___1
  6
CONTINUOUS
 62
    7
 10
628.30613000000005
 20
84.031829999999999
 11
628.30613000000005
 21
74.041049999999998
  0
LINE
  8
_0-1_レイヤ___1
  6
CONTINUOUS
 62
    7
 10
625.29958999999997
 20
84.031829999999999
 11
625.29958999999997
 21
110.87119000000001
  0
LINE
  8
_0-1_レイヤ___1
  6
CONTINUOUS
 62
    7
 10
625.34024999999997
 20
47.032196999999996
 11
625.34024999999997
 21
74.041049999999998
  0
LINE
  8
_0-1_レイヤ___1
  6
CONTINUOUS
 62
    7
 10
625.29958999999997
 20
84.031829999999999
 11
625.29958999999997
 21
110.87119000000001
  0
LINE
  8
_0-1_レイヤ___1
  6
CONTINUOUS
 62
    7
 10
-14.720398000000003
 20
319.25382000000002
 11
-17.641493999999994
 21
320.01656000000003
  0
LINE
  8
_0-1_レイヤ___1
  6
CONTINUOUS
 62
    7
 10
-115.31348700000001
 20
147.72608
 11
-115.31348700000001
 21
152.72147000000001
  0
LINE
  8
_0-1_レイヤ___1
  6
CONTINUOUS
 62
    7
 10
-93.431618000000014
 20
140.61403000000001
 11
-98.084564
 21
142.13779
  0
LINE
  8
_0-1_レイヤ___1
  6
CONTINUOUS
 62
    7
 10
-115.31348700000001
 20
147.72608
 11
-115.31348700000001
 21
152.72147000000001
  0
LINE
  8
_0-1_レイヤ___1
  6
CONTINUOUS
 62
    7
 10
-58.379493999999994
 20
407.73811999999998
 11
-41.403442899999988
 21
407.73811999999998
  0
LINE
  8
_0-1_レイヤ___1
  6
CONTINUOUS
 62
    7
 10
-41.403442899999988
 20
407.73811999999998
 11
-41.403442899999988
 21
383.09931
  0
LINE
  8
_0-1_レイヤ___1
  6
CONTINUOUS
 62
    7
 10
-41.403442899999988
 20
-192.25350000000003
 11
-73.407344999999992
 21
-192.25350000000003
  0
LINE
  8
_0-1_レイヤ___1
  6
CONTINUOUS
 62
    7
 10
-38.397941900000006
 20
90.406930000000003
 11
-38.397941900000006
 21
130.41206
  0
LINE
  8
_0-1_レイヤ___1
  6
CONTINUOUS
 62
    7
 10
-38.397941900000006
 20
130.41206
 11
-41.403442899999988
 21
130.41206
  0
LINE
  8
_0-1_レイヤ___1
  6
CONTINUOUS
 62
    7
 10
-38.397941900000006
 20
90.406930000000003
 11
-41.403442899999988
 21
90.406930000000003
  0
LINE
  8
_0-1_レイヤ___1
  6
CONTINUOUS
 62
    7
 10
-41.403442899999988
 20
90.406930000000003
 11
-41.403442899999988
 21
-122.23400800000002
  0
LINE
  8
_0-1_レイヤ___1
  6
CONTINUOUS
 62
    7
 10
-38.397941900000006
 20
-122.23400800000002
 11
-38.397941900000006
 21
-162.23913999999999
  0
LINE
  8
_0-1_レイヤ___1
  6
CONTINUOUS
 62
    7
 10
-38.397941900000006
 20
-162.23913999999999
 11
-41.403442899999988
 21
-162.23913999999999
  0
LINE
  8
_0-1_レイヤ___1
  6
CONTINUOUS
 62
    7
 10
-38.397941900000006
 20
-122.23400800000002
 11
-41.403442899999988
 21
-122.23400800000002
  0
LINE
  8
_0-1_レイヤ___1
  6
CONTINUOUS
 62
    7
 10
-41.403442899999988
 20
-162.23913999999999
 11
-41.403442899999988
 21
-192.25350000000003
  0
LINE
  8
_0-1_レイヤ___1
  6
CONTINUOUS
 62
    7
 10
-38.397941900000006
 20
383.09931
 11
-38.397941900000006
 21
343.09433999999999
  0
LINE
  8
_0-1_レイヤ___1
  6
CONTINUOUS
 62
    7
 10
-38.397941900000006
 20
343.09433999999999
 11
-41.403442899999988
 21
343.09433999999999
  0
LINE
  8
_0-1_レイヤ___1
  6
CONTINUOUS
 62
    7
 10
-38.397941900000006
 20
383.09931
 11
-41.403442899999988
 21
383.09931
  0
LINE
  8
_0-1_レイヤ___1
  6
CONTINUOUS
 62
    7
 10
-41.403442899999988
 20
343.09433999999999
 11
-41.403442899999988
 21
130.41206
  0
LINE
  8
_0-1_レイヤ___1
  6
CONTINUOUS
 62
    7
 10
-112.35587200000001
 20
152.72147000000001
 11
-112.35587200000001
 21
162.75393
  0
LINE
  8
_0-1_レイヤ___1
  6
CONTINUOUS
 62
    7
 10
-112.35587200000001
 20
162.75393
 11
-115.31348700000001
 21
162.75393
  0
LINE
  8
_0-1_レイヤ___1
  6
CONTINUOUS
 62
    7
 10
-115.31348700000001
 20
152.72147000000001
 11
-112.35587200000001
 21
152.72147000000001
  0
LINE
  8
_0-1_レイヤ___1
  6
CONTINUOUS
 62
    7
 10
-115.31348700000001
 20
162.75393
 11
-115.27352400000001
 21
169.27377000000001
  0
LINE
  8
_0-1_レイヤ___1
  6
CONTINUOUS
 62
    7
 10
-115.27352400000001
 20
169.27377000000001
 11
-115.23287199999999
 21
172.53283999999999
  0
LINE
  8
_0-1_レイヤ___1
  6
CONTINUOUS
 62
    7
 10
-115.23287199999999
 20
172.53283999999999
 11
-115.19222000000002
 21
175.83529999999999
  0
LINE
  8
_0-1_レイヤ___1
  6
CONTINUOUS
 62
    7
 10
-115.19222000000002
 20
175.83529999999999
 11
-115.151567
 21
179.09504999999999
  0
LINE
  8
_0-1_レイヤ___1
  6
CONTINUOUS
 62
    7
 10
-115.151567
 20
179.09504999999999
 11
-115.022032
 21
182.35515000000001
  0
LINE
  8
_0-1_レイヤ___1
  6
CONTINUOUS
 62
    7
 10
-115.022032
 20
182.35515000000001
 11
-114.89249599999999
 21
185.61421000000001
  0
LINE
  8
_0-1_レイヤ___1
  6
CONTINUOUS
 62
    7
 10
-114.89249599999999
 20
185.61421000000001
 11
-114.72196400000001
 21
188.91598999999999
  0
LINE
  8
_0-1_レイヤ___1
  6
CONTINUOUS
 62
    7
 10
-114.72196400000001
 20
188.91598999999999
 11
-114.552121
 21
192.17643000000001
  0
LINE
  8
_0-1_レイヤ___1
  6
CONTINUOUS
 62
    7
 10
-114.552121
 20
192.17643000000001
 11
-114.30062900000001
 21
195.43583000000001
  0
LINE
  8
_0-1_レイヤ___1
  6
CONTINUOUS
 62
    7
 10
-114.30062900000001
 20
195.43583000000001
 11
-114.04948100000001
 21
198.69488999999999
  0
LINE
  8
_0-1_レイヤ___1
  6
CONTINUOUS
 62
    7
 10
-114.04948100000001
 20
198.69488999999999
 11
-113.74975799999999
 21
201.95533
  0
LINE
  8
_0-1_レイヤ___1
  6
CONTINUOUS
 62
    7
 10
-113.74975799999999
 20
201.95533
 11
-113.40938299999999
 21
205.21473
  0
LINE
  8
_0-1_レイヤ___1
  6
CONTINUOUS
 62
    7
 10
-113.40938299999999
 20
205.21473
 11
-113.028355
 21
208.43210999999999
  0
LINE
  8
_0-1_レイヤ___1
  6
CONTINUOUS
 62
    7
 10
-113.028355
 20
208.43210999999999
 11
-112.69590299999999
 21
211.69185999999999
  0
LINE
  8
_0-1_レイヤ___1
  6
CONTINUOUS
 62
    7
 10
-112.69590299999999
 20
211.69185999999999
 11
-112.26664399999999
 21
214.95160999999999
  0
LINE
  8
_0-1_レイヤ___1
  6
CONTINUOUS
 62
    7
 10
-66.888535999999988
 20
395.29167999999999
 11
-64.348121999999989
 21
393.72536000000002
  0
LINE
  8
_0-1_レイヤ___1
  6
CONTINUOUS
 62
    7
 10
-61.638899000000009
 20
403.80106000000001
 11
-59.099175000000002
 21
402.23439999999999
  0
LINE
  8
_0-1_レイヤ___1
  6
CONTINUOUS
 62
    7
 10
-59.099175000000002
 20
402.23439999999999
 11
-64.348121999999989
 21
393.72536000000002
  0
LINE
  8
_0-1_レイヤ___1
  6
CONTINUOUS
 62
    7
 10
-61.638899000000009
 20
403.80106000000001
 11
-60.877188999999987
 21
404.81632999999999
  0
LINE
  8
_0-1_レイヤ___1
  6
CONTINUOUS
 62
    7
 10
-60.877188999999987
 20
404.81632999999999
 11
-60.072414000000009
 21
405.83262999999999
  0
LINE
  8
_0-1_レイヤ___1
  6
CONTINUOUS
 62
    7
 10
-60.072414000000009
 20
405.83262999999999
 11
-59.649700999999993
 21
406.29876000000002
  0
LINE
  8
_0-1_レイヤ___1
  6
CONTINUOUS
 62
    7
 10
-59.649700999999993
 20
406.29876000000002
 11
-59.268674000000004
 21
406.80605000000003
  0
LINE
  8
_0-1_レイヤ___1
  6
CONTINUOUS
 62
    7
 10
-59.268674000000004
 20
406.80605000000003
 11
-58.844927000000013
 21
407.27199999999999
  0
LINE
  8
_0-1_レイヤ___1
  6
CONTINUOUS
 62
    7
 10
-58.844927000000013
 20
407.27199999999999
 11
-58.379493999999994
 21
407.73811999999998
  0
LINE
  8
_0-1_レイヤ___1
  6
CONTINUOUS
 62
    7
 10
-98.173791999999992
 20
285.69112999999999
 11
-100.078586
 21
275.86916000000002
  0
LINE
  8
_0-1_レイヤ___1
  6
CONTINUOUS
 62
    7
 10
-100.078586
 20
275.86916000000002
 11
-102.99554799999999
 21
276.41933999999998
  0
LINE
  8
_0-1_レイヤ___1
  6
CONTINUOUS
 62
    7
 10
-98.173791999999992
 20
285.69112999999999
 11
-101.14001999999999
 21
286.24097
  0
LINE
  8
_0-1_レイヤ___1
  6
CONTINUOUS
 62
    7
 10
-101.14001999999999
 20
286.24097
 11
-100.45926900000001
 21
289.45834000000002
  0
LINE
  8
_0-1_レイヤ___1
  6
CONTINUOUS
 62
    7
 10
-100.45926900000001
 20
289.45834000000002
 11
-99.77817300000001
 21
292.63333999999998
  0
LINE
  8
_0-1_レイヤ___1
  6
CONTINUOUS
 62
    7
 10
-99.77817300000001
 20
292.63333999999998
 11
-99.106034999999991
 21
295.85072000000002
  0
LINE
  8
_0-1_レイヤ___1
  6
CONTINUOUS
 62
    7
 10
-99.106034999999991
 20
295.85072000000002
 11
-98.384632000000011
 21
299.02605999999997
  0
LINE
  8
_0-1_レイヤ___1
  6
CONTINUOUS
 62
    7
 10
-98.384632000000011
 20
299.02605999999997
 11
-97.663573999999983
 21
302.20037000000002
  0
LINE
  8
_0-1_レイヤ___1
  6
CONTINUOUS
 62
    7
 10
-97.663573999999983
 20
302.20037000000002
 11
-96.902552000000014
 21
305.37536999999998
  0
LINE
  8
_0-1_レイヤ___1
  6
CONTINUOUS
 62
    7
 10
-96.902552000000014
 20
305.37536999999998
 11
-96.140497000000011
 21
308.55036999999999
  0
LINE
  8
_0-1_レイヤ___1
  6
CONTINUOUS
 62
    7
 10
-96.140497000000011
 20
308.55036999999999
 11
-95.336756000000008
 21
311.72572000000002
  0
LINE
  8
_0-1_レイヤ___1
  6
CONTINUOUS
 62
    7
 10
-95.336756000000008
 20
311.72572000000002
 11
-94.532326000000012
 21
314.90071999999998
  0
LINE
  8
_0-1_レイヤ___1
  6
CONTINUOUS
 62
    7
 10
-94.532326000000012
 20
314.90071999999998
 11
-93.728240999999997
 21
318.07571999999999
  0
LINE
  8
_0-1_レイヤ___1
  6
CONTINUOUS
 62
    7
 10
-93.728240999999997
 20
318.07571999999999
 11
-92.881091999999995
 21
321.20800000000003
  0
LINE
  8
_0-1_レイヤ___1
  6
CONTINUOUS
 62
    7
 10
-92.881091999999995
 20
321.20800000000003
 11
-92.076318000000015
 21
324.38299999999998
  0
LINE
  8
_0-1_レイヤ___1
  6
CONTINUOUS
 62
    7
 10
-92.076318000000015
 20
324.38299999999998
 11
-91.187482999999986
 21
327.51596999999998
  0
LINE
  8
_0-1_レイヤ___1
  6
CONTINUOUS
 62
    7
 10
-91.187482999999986
 20
327.51596999999998
 11
-90.340678999999994
 21
330.69130999999999
  0
LINE
  8
_0-1_レイヤ___1
  6
CONTINUOUS
 62
    7
 10
-90.340678999999994
 20
330.69130999999999
 11
-89.45150000000001
 21
333.82324999999997
  0
LINE
  8
_0-1_レイヤ___1
  6
CONTINUOUS
 62
    7
 10
-89.45150000000001
 20
333.82324999999997
 11
-88.563009999999991
 21
336.95621999999997
  0
LINE
  8
_0-1_レイヤ___1
  6
CONTINUOUS
 62
    7
 10
-108.07706400000001
 20
224.47626
 11
-111.00229400000001
 21
224.85763
  0
LINE
  8
_0-1_レイヤ___1
  6
CONTINUOUS
 62
    7
 10
-112.26664399999999
 20
214.95160999999999
 11
-109.30868599999999
 21
214.57058000000001
  0
LINE
  8
_0-1_レイヤ___1
  6
CONTINUOUS
 62
    7
 10
-109.30868599999999
 20
214.57058000000001
 11
-108.07706400000001
 21
224.47626
  0
LINE
  8
_0-1_レイヤ___1
  6
CONTINUOUS
 62
    7
 10
-111.00229400000001
 20
224.85763
 11
-110.11139300000002
 21
231.33440999999999
  0
LINE
  8
_0-1_レイヤ___1
  6
CONTINUOUS
 62
    7
 10
-110.11139300000002
 20
231.33440999999999
 11
-109.17914999999999
 21
237.76916
  0
LINE
  8
_0-1_レイヤ___1
  6
CONTINUOUS
 62
    7
 10
-109.17914999999999
 20
237.76916
 11
-108.20659899999998
 21
244.24662999999998
  0
LINE
  8
_0-1_レイヤ___1
  6
CONTINUOUS
 62
    7
 10
-108.20659899999998
 20
244.24662999999998
 11
-107.23439400000001
 21
250.68104
  0
LINE
  8
_0-1_レイヤ___1
  6
CONTINUOUS
 62
    7
 10
-107.23439400000001
 20
250.68104
 11
-106.21292299999999
 21
257.11579
  0
LINE
  8
_0-1_レイヤ___1
  6
CONTINUOUS
 62
    7
 10
-106.21292299999999
 20
257.11579
 11
-105.200065
 21
263.54984999999999
  0
LINE
  8
_0-1_レイヤ___1
  6
CONTINUOUS
 62
    7
 10
-105.200065
 20
263.54984999999999
 11
-104.64919399999999
 21
266.76722000000001
  0
LINE
  8
_0-1_レイヤ___1
  6
CONTINUOUS
 62
    7
 10
-104.64919399999999
 20
266.76722000000001
 11
-104.13828599999999
 21
269.9846
  0
LINE
  8
_0-1_レイヤ___1
  6
CONTINUOUS
 62
    7
 10
-104.13828599999999
 20
269.9846
 11
-103.595339
 21
273.20197000000002
  0
LINE
  8
_0-1_レイヤ___1
  6
CONTINUOUS
 62
    7
 10
-103.595339
 20
273.20197000000002
 11
-102.99554799999999
 21
276.41933999999998
  0
LINE
  8
_0-1_レイヤ___1
  6
CONTINUOUS
 62
    7
 10
-82.847940999999992
 20
345.71951000000001
 11
-85.684288000000009
 21
336.10975999999999
  0
LINE
  8
_0-1_レイヤ___1
  6
CONTINUOUS
 62
    7
 10
-85.684288000000009
 20
336.10975999999999
 11
-88.563009999999991
 21
336.95621999999997
  0
LINE
  8
_0-1_レイヤ___1
  6
CONTINUOUS
 62
    7
 10
-82.847940999999992
 20
345.71951000000001
 11
-85.727350999999999
 21
346.56596999999999
  0
LINE
  8
_0-1_レイヤ___1
  6
CONTINUOUS
 62
    7
 10
-85.727350999999999
 20
346.56596999999999
 11
-84.752734000000004
 21
349.69824999999997
  0
LINE
  8
_0-1_レイヤ___1
  6
CONTINUOUS
 62
    7
 10
-84.752734000000004
 20
349.69824999999997
 11
-83.77983900000001
 21
352.78919000000002
  0
LINE
  8
_0-1_レイヤ___1
  6
CONTINUOUS
 62
    7
 10
-83.77983900000001
 20
352.78919000000002
 11
-82.763535999999988
 21
355.92129999999997
  0
LINE
  8
_0-1_レイヤ___1
  6
CONTINUOUS
 62
    7
 10
-82.763535999999988
 20
355.92129999999997
 11
-81.747232999999994
 21
359.01206000000002
  0
LINE
  8
_0-1_レイヤ___1
  6
CONTINUOUS
 62
    7
 10
-81.747232999999994
 20
359.01206000000002
 11
-80.688898999999992
 21
362.10196999999999
  0
LINE
  8
_0-1_レイヤ___1
  6
CONTINUOUS
 62
    7
 10
-80.688898999999992
 20
362.10196999999999
 11
-79.630565999999988
 21
365.19308000000001
  0
LINE
  8
_0-1_レイヤ___1
  6
CONTINUOUS
 62
    7
 10
-79.630565999999988
 20
365.19308000000001
 11
-79.080039999999997
 21
366.75871000000001
  0
LINE
  8
_0-1_レイヤ___1
  6
CONTINUOUS
 62
    7
 10
-79.080039999999997
 20
366.75871000000001
 11
-78.52985799999999
 21
368.28298999999998
  0
LINE
  8
_0-1_レイヤ___1
  6
CONTINUOUS
 62
    7
 10
-78.52985799999999
 20
368.28298999999998
 11
-77.979675999999984
 21
369.80658
  0
LINE
  8
_0-1_レイヤ___1
  6
CONTINUOUS
 62
    7
 10
-77.979675999999984
 20
369.80658
 11
-77.387463999999994
 21
371.37306999999998
  0
LINE
  8
_0-1_レイヤ___1
  6
CONTINUOUS
 62
    7
 10
-77.387463999999994
 20
371.37306999999998
 11
-76.837283000000014
 21
372.89735000000002
  0
LINE
  8
_0-1_レイヤ___1
  6
CONTINUOUS
 62
    7
 10
-76.837283000000014
 20
372.89735000000002
 11
-76.243693000000007
 21
374.42093999999997
  0
LINE
  8
_0-1_レイヤ___1
  6
CONTINUOUS
 62
    7
 10
-76.243693000000007
 20
374.42093999999997
 11
-75.65148099999999
 21
375.94540000000001
  0
LINE
  8
_0-1_レイヤ___1
  6
CONTINUOUS
 62
    7
 10
-75.65148099999999
 20
375.94540000000001
 11
-75.059269
 21
377.46967999999998
  0
LINE
  8
_0-1_レイヤ___1
  6
CONTINUOUS
 62
    7
 10
-75.059269
 20
377.46967999999998
 11
-74.423992999999996
 21
378.99293
  0
LINE
  8
_0-1_レイヤ___1
  6
CONTINUOUS
 62
    7
 10
-74.423992999999996
 20
378.99293
 11
-73.831092000000012
 21
380.47465999999997
  0
LINE
  8
_0-1_レイヤ___1
  6
CONTINUOUS
 62
    7
 10
-73.831092000000012
 20
380.47465999999997
 11
-73.195817000000005
 21
381.99912
  0
LINE
  8
_0-1_レイヤ___1
  6
CONTINUOUS
 62
    7
 10
-73.195817000000005
 20
381.99912
 11
-72.561575000000005
 21
383.52339999999998
  0
LINE
  8
_0-1_レイヤ___1
  6
CONTINUOUS
 62
    7
 10
-72.561575000000005
 20
383.52339999999998
 11
-71.883924000000007
 21
385.00461999999999
  0
LINE
  8
_0-1_レイヤ___1
  6
CONTINUOUS
 62
    7
 10
-71.883924000000007
 20
385.00461999999999
 11
-71.206617999999992
 21
386.48601000000002
  0
LINE
  8
_0-1_レイヤ___1
  6
CONTINUOUS
 62
    7
 10
-71.206617999999992
 20
386.48601000000002
 11
-70.528967999999992
 21
387.96843999999999
  0
LINE
  8
_0-1_レイヤ___1
  6
CONTINUOUS
 62
    7
 10
-70.528967999999992
 20
387.96843999999999
 11
-69.851317999999992
 21
389.44965999999999
  0
LINE
  8
_0-1_レイヤ___1
  6
CONTINUOUS
 62
    7
 10
-69.851317999999992
 20
389.44965999999999
 11
-69.131981999999994
 21
390.93105000000003
  0
LINE
  8
_0-1_レイヤ___1
  6
CONTINUOUS
 62
    7
 10
-69.131981999999994
 20
390.93105000000003
 11
-68.412301000000014
 21
392.41329999999999
  0
LINE
  8
_0-1_レイヤ___1
  6
CONTINUOUS
 62
    7
 10
-68.412301000000014
 20
392.41329999999999
 11
-67.650590999999991
 21
393.85230999999999
  0
LINE
  8
_0-1_レイヤ___1
  6
CONTINUOUS
 62
    7
 10
-67.650590999999991
 20
393.85230999999999
 11
-66.888535999999988
 21
395.29167999999999
  0
LINE
  8
_0-1_レイヤ___1
  6
CONTINUOUS
 62
    7
 10
-70.698466999999994
 20
-187.08793000000003
 11
-71.290679000000011
 21
-177.09715
  0
LINE
  8
_0-1_レイヤ___1
  6
CONTINUOUS
 62
    7
 10
-71.290679000000011
 20
-177.09715
 11
-74.296525000000003
 21
-177.26665
  0
LINE
  8
_0-1_レイヤ___1
  6
CONTINUOUS
 62
    7
 10
-73.704313000000013
 20
-187.25742000000002
 11
-70.698466999999994
 21
-187.08793000000003
  0
LINE
  8
_0-1_レイヤ___1
  6
CONTINUOUS
 62
    7
 10
-80.09634299999999
 20
-30.835624999999993
 11
-80.688898999999992
 21
-20.845537100000001
  0
LINE
  8
_0-1_レイヤ___1
  6
CONTINUOUS
 62
    7
 10
-80.688898999999992
 20
-20.845537100000001
 11
-83.694400999999999
 21
-21.015035100000006
  0
LINE
  8
_0-1_レイヤ___1
  6
CONTINUOUS
 62
    7
 10
-83.10218900000001
 20
-31.005122999999998
 11
-80.09634299999999
 21
-30.835624999999993
  0
LINE
  8
_0-1_レイヤ___1
  6
CONTINUOUS
 62
    7
 10
-89.494562999999999
 20
125.41598999999999
 11
-90.12915000000001
 21
135.40745000000001
  0
LINE
  8
_0-1_レイヤ___1
  6
CONTINUOUS
 62
    7
 10
-90.12915000000001
 20
135.40745000000001
 11
-93.134650999999991
 21
135.19488999999999
  0
LINE
  8
_0-1_レイヤ___1
  6
CONTINUOUS
 62
    7
 10
-92.500065000000006
 20
125.24752000000001
 11
-89.494562999999999
 21
125.41598999999999
  0
LINE
  8
_0-1_レイヤ___1
  6
CONTINUOUS
 62
    7
 10
-93.134650999999991
 20
135.19488999999999
 11
-93.431618000000014
 21
140.61403000000001
  0
LINE
  8
_0-1_レイヤ___1
  6
CONTINUOUS
 62
    7
 10
-83.694400999999999
 20
-21.015035100000006
 11
-92.500065000000006
 21
125.24752000000001
  0
LINE
  8
_0-1_レイヤ___1
  6
CONTINUOUS
 62
    7
 10
-74.296525000000003
 20
-177.26665
 11
-83.10218900000001
 21
-31.005122999999998
  0
LINE
  8
_0-1_レイヤ___1
  6
CONTINUOUS
 62
    7
 10
-73.704313000000013
 20
-187.25742000000002
 11
-73.407344999999992
 21
-192.25350000000003
  0
LINE
  8
_0-1_レイヤ___1
  6
CONTINUOUS
 62
    7
 10
-54.273284999999987
 20
131.04665
 11
-44.747941800000007
 21
127.95674
  0
LINE
  8
_0-1_レイヤ___1
  6
CONTINUOUS
 62
    7
 10
-44.747941800000007
 20
127.95674
 11
-45.679150800000002
 21
125.12039999999999
  0
LINE
  8
_0-1_レイヤ___1
  6
CONTINUOUS
 62
    7
 10
-55.204494000000011
 20
128.21029999999999
 11
-54.273284999999987
 21
131.04665
  0
LINE
  8
_0-1_レイヤ___1
  6
CONTINUOUS
 62
    7
 10
-98.084564
 20
142.13779
 11
-97.156800000000004
 21
144.97414000000001
  0
LINE
  8
_0-1_レイヤ___1
  6
CONTINUOUS
 62
    7
 10
-97.156800000000004
 20
144.97414000000001
 11
-106.64287100000001
 21
148.06507999999999
  0
LINE
  8
_0-1_レイヤ___1
  6
CONTINUOUS
 62
    7
 10
-106.64287100000001
 20
148.06507999999999
 11
-107.57442399999999
 21
145.22838999999999
  0
LINE
  8
_0-1_レイヤ___1
  6
CONTINUOUS
 62
    7
 10
-107.57442399999999
 20
145.22838999999999
 11
-115.31348700000001
 21
147.72608
  0
LINE
  8
_0-1_レイヤ___1
  6
CONTINUOUS
 62
    7
 10
-55.204494000000011
 20
128.21029999999999
 11
-45.679150800000002
 21
125.12039999999999
  0
LINE
  8
_0-1_レイヤ___1
  6
CONTINUOUS
 62
    7
 10
-61.738422000000014
 20
-202.09537
 11
-32.740021000000013
 21
-202.09537
  0
LINE
  8
_0-1_レイヤ___1
  6
CONTINUOUS
 62
    7
 10
-32.740021000000013
 20
-202.09537
 11
-32.740021000000013
 21
-221.06130999999999
  0
LINE
  8
_0-1_レイヤ___1
  6
CONTINUOUS
 62
    7
 10
-32.740021000000013
 20
-221.06130999999999
 11
-61.738422000000014
 21
-221.06130999999999
  0
LINE
  8
_0-1_レイヤ___1
  6
CONTINUOUS
 62
    7
 10
-61.738422000000014
 20
-221.06130999999999
 11
-61.738422000000014
 21
-202.09537
  0
LINE
  8
_0-1_レイヤ___1
  6
CONTINUOUS
 62
    7
 10
-61.738422000000014
 20
-202.09537
 11
-32.740021000000013
 21
-202.09537
  0
LINE
  8
_0-1_レイヤ___1
  6
CONTINUOUS
 62
    7
 10
-32.740021000000013
 20
-202.09537
 11
-32.740021000000013
 21
-221.06130999999999
  0
LINE
  8
_0-1_レイヤ___1
  6
CONTINUOUS
 62
    7
 10
-32.740021000000013
 20
-221.06130999999999
 11
-61.738422000000014
 21
-221.06130999999999
  0
LINE
  8
_0-1_レイヤ___1
  6
CONTINUOUS
 62
    7
 10
-61.738422000000014
 20
-221.06130999999999
 11
-61.738422000000014
 21
-202.09537
  0
LINE
  8
_0-1_レイヤ___1
  6
CONTINUOUS
 62
    7
 10
-82.805357000000015
 20
-194.11666000000002
 11
-83.39688000000001
 21
-184.12657000000002
  0
LINE
  8
_0-1_レイヤ___1
  6
CONTINUOUS
 62
    7
 10
-83.39688000000001
 20
-184.12657000000002
 11
-86.403759000000008
 21
-184.29606999999999
  0
LINE
  8
_0-1_レイヤ___1
  6
CONTINUOUS
 62
    7
 10
-85.811892
 20
-194.28683999999998
 11
-82.805357000000015
 21
-194.11666000000002
  0
LINE
  8
_0-1_レイヤ___1
  6
CONTINUOUS
 62
    7
 10
-92.205644000000007
 20
-37.8650442
 11
-92.797511999999983
 21
-27.873578300000005
  0
LINE
  8
_0-1_レイヤ___1
  6
CONTINUOUS
 62
    7
 10
-92.797511999999983
 20
-27.873578300000005
 11
-95.804046999999997
 21
-28.085796299999998
  0
LINE
  8
_0-1_レイヤ___1
  6
CONTINUOUS
 62
    7
 10
-95.212524000000002
 20
-38.034543200000002
 11
-92.205644000000007
 21
-37.8650442
  0
LINE
  8
_0-1_レイヤ___1
  6
CONTINUOUS
 62
    7
 10
-101.598353
 20
118.38759999999999
 11
-102.23879600000001
 21
128.33635000000001
  0
LINE
  8
_0-1_レイヤ___1
  6
CONTINUOUS
 62
    7
 10
-102.23879600000001
 20
128.33635000000001
 11
-105.19641000000001
 21
128.16685000000001
  0
LINE
  8
_0-1_レイヤ___1
  6
CONTINUOUS
 62
    7
 10
-104.60488699999999
 20
118.17607000000001
 11
-101.598353
 21
118.38759999999999
  0
LINE
  8
_0-1_レイヤ___1
  6
CONTINUOUS
 62
    7
 10
-124.41901000000001
 20
131.34184999999999
 11
-105.496478
 21
133.16189
  0
LINE
  8
_0-1_レイヤ___1
  6
CONTINUOUS
 62
    7
 10
-104.48362
 20
-200.25581999999997
 11
-104.77507500000002
 21
-195.42923999999999
  0
LINE
  8
_0-1_レイヤ___1
  6
CONTINUOUS
 62
    7
 10
-124.41901000000001
 20
131.34184999999999
 11
-124.41901000000001
 21
131.12962999999999
  0
LINE
  8
_0-1_レイヤ___1
  6
CONTINUOUS
 62
    7
 10
-105.496478
 20
133.16189
 11
-105.19641000000001
 21
128.16685000000001
  0
LINE
  8
_0-1_レイヤ___1
  6
CONTINUOUS
 62
    7
 10
-85.512168000000003
 20
-199.28154000000001
 11
-104.48362
 21
-200.42532
  0
LINE
  8
_0-1_レイヤ___1
  6
CONTINUOUS
 62
    7
 10
-104.48362
 20
-200.42532
 11
-104.48362
 21
-200.25581999999997
  0
LINE
  8
_0-1_レイヤ___1
  6
CONTINUOUS
 62
    7
 10
-85.512168000000003
 20
-199.11203999999998
 11
-85.811892
 21
-194.28683999999998
  0
LINE
  8
_0-1_レイヤ___1
  6
CONTINUOUS
 62
    7
 10
-85.811892
 20
-194.28683999999998
 11
-85.512168000000003
 21
-199.28154000000001
  0
LINE
  8
_0-1_レイヤ___1
  6
CONTINUOUS
 62
    7
 10
-95.212524000000002
 20
-38.034543200000002
 11
-86.403759000000008
 21
-184.29606999999999
  0
LINE
  8
_0-1_レイヤ___1
  6
CONTINUOUS
 62
    7
 10
-104.60488699999999
 20
118.17607000000001
 11
-95.804046999999997
 21
-28.085796299999998
  0
LINE
  8
_0-1_レイヤ___1
  6
CONTINUOUS
 62
    7
 10
-108.373133
 20
-185.64999
 11
-107.78161
 21
-195.59874000000002
  0
LINE
  8
_0-1_レイヤ___1
  6
CONTINUOUS
 62
    7
 10
-107.78161
 20
-195.59874000000002
 11
-104.77507500000002
 21
-195.42923999999999
  0
LINE
  8
_0-1_レイヤ___1
  6
CONTINUOUS
 62
    7
 10
-108.373133
 20
-185.64999
 11
-105.36694299999999
 21
-185.43845999999996
  0
LINE
  8
_0-1_レイヤ___1
  6
CONTINUOUS
 62
    7
 10
-114.17570699999999
 20
-39.176937199999998
 11
-117.182242
 21
-39.388465199999999
  0
LINE
  8
_0-1_レイヤ___1
  6
CONTINUOUS
 62
    7
 10
-114.76722999999998
 20
-29.228879300000003
 11
-117.773765
 21
-29.397688299999999
  0
LINE
  8
_0-1_レイヤ___1
  6
CONTINUOUS
 62
    7
 10
-117.773765
 20
-29.397688299999999
 11
-117.182242
 21
-39.388465199999999
  0
LINE
  8
_0-1_レイヤ___1
  6
CONTINUOUS
 62
    7
 10
-123.568071
 20
117.03299000000001
 11
-126.57495
 21
116.86314999999999
  0
LINE
  8
_0-1_レイヤ___1
  6
CONTINUOUS
 62
    7
 10
-124.16786200000001
 20
127.02307999999999
 11
-127.166473
 21
126.85391999999999
  0
LINE
  8
_0-1_レイヤ___1
  6
CONTINUOUS
 62
    7
 10
-127.166473
 20
126.85391999999999
 11
-126.57495
 21
116.86314999999999
  0
LINE
  8
_0-1_レイヤ___1
  6
CONTINUOUS
 62
    7
 10
-105.36694299999999
 20
-185.43845999999996
 11
-114.17570699999999
 21
-39.176937199999998
  0
LINE
  8
_0-1_レイヤ___1
  6
CONTINUOUS
 62
    7
 10
-114.76722999999998
 20
-29.228879300000003
 11
-123.568071
 21
117.03299000000001
  0
LINE
  8
_0-1_レイヤ___1
  6
CONTINUOUS
 62
    7
 10
-124.16786200000001
 20
127.02307999999999
 11
-124.41901000000001
 21
131.34184999999999
  0
LINE
  8
_0-1_レイヤ___1
  6
CONTINUOUS
 62
    7
 10
-18.239405000000005
 20
403.23917
 11
-18.239405000000005
 21
388.25351999999998
  0
LINE
  8
_0-1_レイヤ___1
  6
CONTINUOUS
 62
    7
 10
-18.239405000000005
 20
388.25351999999998
 11
-1.2633529999999951
 21
388.25351999999998
  0
LINE
  8
_0-1_レイヤ___1
  6
CONTINUOUS
 62
    7
 10
-1.2633529999999951
 20
388.25351999999998
 11
-1.2633529999999951
 21
403.23917
  0
LINE
  8
_0-1_レイヤ___1
  6
CONTINUOUS
 62
    7
 10
-1.2633529999999951
 20
403.23917
 11
-18.239405000000005
 21
403.23917
  0
LINE
  8
_0-1_レイヤ___1
  6
CONTINUOUS
 62
    7
 10
-18.239405000000005
 20
403.23917
 11
-18.239405000000005
 21
388.25351999999998
  0
LINE
  8
_0-1_レイヤ___1
  6
CONTINUOUS
 62
    7
 10
-18.239405000000005
 20
388.25351999999998
 11
-1.2633529999999951
 21
388.25351999999998
  0
LINE
  8
_0-1_レイヤ___1
  6
CONTINUOUS
 62
    7
 10
-1.2633529999999951
 20
388.25351999999998
 11
-1.2633529999999951
 21
403.23917
  0
LINE
  8
_0-1_レイヤ___1
  6
CONTINUOUS
 62
    7
 10
-1.2633529999999951
 20
403.23917
 11
-18.239405000000005
 21
403.23917
  0
LINE
  8
_0-1_レイヤ___1
  6
CONTINUOUS
 62
    7
 10
-124.149655
 20
140.82150999999999
 11
-124.149655
 21
145.8169
  0
LINE
  8
_0-1_レイヤ___1
  6
CONTINUOUS
 62
    7
 10
-124.10934800000001
 20
410.06209999999999
 11
-139.093446
 21
410.01902999999999
  0
LINE
  8
_0-1_レイヤ___1
  6
CONTINUOUS
 62
    7
 10
-139.093446
 20
410.01902999999999
 11
-139.64466099999999
 21
407.56457
  0
LINE
  8
_0-1_レイヤ___1
  6
CONTINUOUS
 62
    7
 10
-139.64466099999999
 20
407.56457
 11
-140.19553200000001
 21
405.15111000000002
  0
LINE
  8
_0-1_レイヤ___1
  6
CONTINUOUS
 62
    7
 10
-162.96760999999998
 20
140.82150999999999
 11
-148.06413000000001
 21
140.82150999999999
  0
LINE
  8
_0-1_レイヤ___1
  6
CONTINUOUS
 62
    7
 10
-121.14312000000001
 20
145.8169
 11
-121.14312000000001
 21
155.84935999999999
  0
LINE
  8
_0-1_レイヤ___1
  6
CONTINUOUS
 62
    7
 10
-121.14312000000001
 20
155.84935999999999
 11
-124.149655
 21
155.84935999999999
  0
LINE
  8
_0-1_レイヤ___1
  6
CONTINUOUS
 62
    7
 10
-124.149655
 20
145.8169
 11
-121.14312000000001
 21
145.8169
  0
LINE
  8
_0-1_レイヤ___1
  6
CONTINUOUS
 62
    7
 10
-124.10934800000001
 20
395.03304000000003
 11
-121.10246799999999
 21
395.03304000000003
  0
LINE
  8
_0-1_レイヤ___1
  6
CONTINUOUS
 62
    7
 10
-124.10934800000001
 20
405.02382
 11
-121.10246799999999
 21
405.02382
  0
LINE
  8
_0-1_レイヤ___1
  6
CONTINUOUS
 62
    7
 10
-121.10246799999999
 20
405.02382
 11
-121.10246799999999
 21
395.03304000000003
  0
LINE
  8
_0-1_レイヤ___1
  6
CONTINUOUS
 62
    7
 10
-124.10934800000001
 20
410.06209999999999
 11
-124.10934800000001
 21
405.02382
  0
LINE
  8
_0-1_レイヤ___1
  6
CONTINUOUS
 62
    7
 10
-124.149655
 20
270.44632999999999
 11
-121.14312000000001
 21
270.44632999999999
  0
LINE
  8
_0-1_レイヤ___1
  6
CONTINUOUS
 62
    7
 10
-124.149655
 20
280.43709999999999
 11
-121.14312000000001
 21
280.43709999999999
  0
LINE
  8
_0-1_レイヤ___1
  6
CONTINUOUS
 62
    7
 10
-121.14312000000001
 20
280.43709999999999
 11
-121.14312000000001
 21
270.44632999999999
  0
LINE
  8
_0-1_レイヤ___1
  6
CONTINUOUS
 62
    7
 10
-124.149655
 20
270.44632999999999
 11
-124.149655
 21
218.12187
  0
LINE
  8
_0-1_レイヤ___1
  6
CONTINUOUS
 62
    7
 10
-124.149655
 20
280.43709999999999
 11
-124.149655
 21
332.76121000000001
  0
LINE
  8
_0-1_レイヤ___1
  6
CONTINUOUS
 62
    7
 10
-121.14312000000001
 20
218.12187
 11
-121.14312000000001
 21
208.13144
  0
LINE
  8
_0-1_レイヤ___1
  6
CONTINUOUS
 62
    7
 10
-121.14312000000001
 20
208.13144
 11
-124.149655
 21
208.13144
  0
LINE
  8
_0-1_レイヤ___1
  6
CONTINUOUS
 62
    7
 10
-121.14312000000001
 20
218.12187
 11
-124.149655
 21
218.12187
  0
LINE
  8
_0-1_レイヤ___1
  6
CONTINUOUS
 62
    7
 10
-124.149655
 20
208.13144
 11
-124.149655
 21
155.84935999999999
  0
LINE
  8
_0-1_レイヤ___1
  6
CONTINUOUS
 62
    7
 10
-121.183772
 20
342.75130000000001
 11
-121.183772
 21
332.76121000000001
  0
LINE
  8
_0-1_レイヤ___1
  6
CONTINUOUS
 62
    7
 10
-121.183772
 20
332.76121000000001
 11
-124.149655
 21
332.76121000000001
  0
LINE
  8
_0-1_レイヤ___1
  6
CONTINUOUS
 62
    7
 10
-121.183772
 20
342.75130000000001
 11
-124.149655
 21
342.75130000000001
  0
LINE
  8
_0-1_レイヤ___1
  6
CONTINUOUS
 62
    7
 10
-124.149655
 20
342.75130000000001
 11
-124.149655
 21
395.03304000000003
  0
LINE
  8
_0-1_レイヤ___1
  6
CONTINUOUS
 62
    7
 10
-162.9273
 20
155.84935999999999
 11
-165.89283999999998
 21
155.84935999999999
  0
LINE
  8
_0-1_レイヤ___1
  6
CONTINUOUS
 62
    7
 10
-165.89283999999998
 20
155.84935999999999
 11
-165.89283999999998
 21
145.8169
  0
LINE
  8
_0-1_レイヤ___1
  6
CONTINUOUS
 62
    7
 10
-165.89283999999998
 20
145.8169
 11
-162.9273
 21
145.8169
  0
LINE
  8
_0-1_レイヤ___1
  6
CONTINUOUS
 62
    7
 10
-162.24621000000002
 20
203.51674
 11
-165.25308000000001
 21
203.64420000000001
  0
LINE
  8
_0-1_レイヤ___1
  6
CONTINUOUS
 62
    7
 10
-165.25308000000001
 20
203.64420000000001
 11
-164.79075
 21
213.63463999999999
  0
LINE
  8
_0-1_レイヤ___1
  6
CONTINUOUS
 62
    7
 10
-164.79075
 20
213.63463999999999
 11
-161.74391000000003
 21
213.50819999999999
  0
LINE
  8
_0-1_レイヤ___1
  6
CONTINUOUS
 62
    7
 10
-162.9273
 20
145.8169
 11
-162.96760999999998
 21
140.82150999999999
  0
LINE
  8
_0-1_レイヤ___1
  6
CONTINUOUS
 62
    7
 10
-162.24621000000002
 20
203.51674
 11
-162.50562000000002
 21
197.59048000000001
  0
LINE
  8
_0-1_レイヤ___1
  6
CONTINUOUS
 62
    7
 10
-162.50562000000002
 20
197.59048000000001
 11
-162.62723
 21
194.58464000000001
  0
LINE
  8
_0-1_レイヤ___1
  6
CONTINUOUS
 62
    7
 10
-162.62723
 20
194.58464000000001
 11
-162.71611999999999
 21
191.57912999999999
  0
LINE
  8
_0-1_レイヤ___1
  6
CONTINUOUS
 62
    7
 10
-162.71611999999999
 20
191.57912999999999
 11
-162.79741999999999
 21
188.61600999999999
  0
LINE
  8
_0-1_レイヤ___1
  6
CONTINUOUS
 62
    7
 10
-162.79741999999999
 20
188.61600999999999
 11
-162.846
 21
185.65253999999999
  0
LINE
  8
_0-1_レイヤ___1
  6
CONTINUOUS
 62
    7
 10
-162.846
 20
185.65253999999999
 11
-162.88665000000003
 21
182.64669000000001
  0
LINE
  8
_0-1_レイヤ___1
  6
CONTINUOUS
 62
    7
 10
-162.88665000000003
 20
182.64669000000001
 11
-162.9273
 21
179.68322000000001
  0
LINE
  8
_0-1_レイヤ___1
  6
CONTINUOUS
 62
    7
 10
-162.9273
 20
179.68322000000001
 11
-162.96760999999998
 21
176.72044
  0
LINE
  8
_0-1_レイヤ___1
  6
CONTINUOUS
 62
    7
 10
-162.96760999999998
 20
176.72044
 11
-162.96760999999998
 21
167.78799000000001
  0
LINE
  8
_0-1_レイヤ___1
  6
CONTINUOUS
 62
    7
 10
-162.96760999999998
 20
167.78799000000001
 11
-162.9273
 21
161.81868
  0
LINE
  8
_0-1_レイヤ___1
  6
CONTINUOUS
 62
    7
 10
-162.9273
 20
161.81868
 11
-162.9273
 21
155.84935999999999
  0
LINE
  8
_0-1_レイヤ___1
  6
CONTINUOUS
 62
    7
 10
-157.00277
 20
280.98728999999997
 11
-160.00964999999997
 21
281.24119000000002
  0
LINE
  8
_0-1_レイヤ___1
  6
CONTINUOUS
 62
    7
 10
-160.00964999999997
 20
281.24119000000002
 11
-160.81200999999999
 21
271.29279000000002
  0
LINE
  8
_0-1_レイヤ___1
  6
CONTINUOUS
 62
    7
 10
-160.81200999999999
 20
271.29279000000002
 11
-157.84578999999997
 21
271.03922999999998
  0
LINE
  8
_0-1_レイヤ___1
  6
CONTINUOUS
 62
    7
 10
-157.84578999999997
 20
271.03922999999998
 11
-158.39666
 21
263.88479999999998
  0
LINE
  8
_0-1_レイヤ___1
  6
CONTINUOUS
 62
    7
 10
-158.39666
 20
263.88479999999998
 11
-158.64814999999999
 21
260.28674000000001
  0
LINE
  8
_0-1_レイヤ___1
  6
CONTINUOUS
 62
    7
 10
-158.64814999999999
 20
260.28674000000001
 11
-158.90755999999999
 21
256.64528000000001
  0
LINE
  8
_0-1_レイヤ___1
  6
CONTINUOUS
 62
    7
 10
-158.90755999999999
 20
256.64528000000001
 11
-159.15870999999999
 21
253.04755999999998
  0
LINE
  8
_0-1_レイヤ___1
  6
CONTINUOUS
 62
    7
 10
-159.15870999999999
 20
253.04755999999998
 11
-159.40985999999998
 21
249.44916000000001
  0
LINE
  8
_0-1_レイヤ___1
  6
CONTINUOUS
 62
    7
 10
-159.40985999999998
 20
249.44916000000001
 11
-159.92041999999998
 21
242.29404
  0
LINE
  8
_0-1_レイヤ___1
  6
CONTINUOUS
 62
    7
 10
-159.92041999999998
 20
242.29404
 11
-160.43133
 21
235.09827000000001
  0
LINE
  8
_0-1_レイヤ___1
  6
CONTINUOUS
 62
    7
 10
-160.43133
 20
235.09827000000001
 11
-160.89296999999999
 21
227.90078
  0
LINE
  8
_0-1_レイヤ___1
  6
CONTINUOUS
 62
    7
 10
-160.89296999999999
 20
227.90078
 11
-161.31430999999998
 21
220.70432
  0
LINE
  8
_0-1_レイヤ___1
  6
CONTINUOUS
 62
    7
 10
-161.31430999999998
 20
220.70432
 11
-161.74391000000003
 21
213.50819999999999
  0
LINE
  8
_0-1_レイヤ___1
  6
CONTINUOUS
 62
    7
 10
-149.63647
 20
348.25484
 11
-152.64300000000003
 21
348.63569999999999
  0
LINE
  8
_0-1_レイヤ___1
  6
CONTINUOUS
 62
    7
 10
-152.64300000000003
 20
348.63569999999999
 11
-153.86669999999998
 21
338.68747000000002
  0
LINE
  8
_0-1_レイヤ___1
  6
CONTINUOUS
 62
    7
 10
-153.86669999999998
 20
338.68747000000002
 11
-150.90082000000001
 21
338.30644000000001
  0
LINE
  8
_0-1_レイヤ___1
  6
CONTINUOUS
 62
    7
 10
-150.90082000000001
 20
338.30644000000001
 11
-151.75175999999999
 21
331.15235999999999
  0
LINE
  8
_0-1_レイヤ___1
  6
CONTINUOUS
 62
    7
 10
-151.75175999999999
 20
331.15235999999999
 11
-152.59476999999998
 21
323.99826999999999
  0
LINE
  8
_0-1_レイヤ___1
  6
CONTINUOUS
 62
    7
 10
-152.59476999999998
 20
323.99826999999999
 11
-153.40505999999999
 21
316.84417999999999
  0
LINE
  8
_0-1_レイヤ___1
  6
CONTINUOUS
 62
    7
 10
-153.40505999999999
 20
316.84417999999999
 11
-154.20708000000002
 21
309.64668999999998
  0
LINE
  8
_0-1_レイヤ___1
  6
CONTINUOUS
 62
    7
 10
-154.20708000000002
 20
309.64668999999998
 11
-154.92881999999997
 21
302.49295000000001
  0
LINE
  8
_0-1_レイヤ___1
  6
CONTINUOUS
 62
    7
 10
-154.92881999999997
 20
302.49295000000001
 11
-155.64161000000001
 21
295.33852000000002
  0
LINE
  8
_0-1_レイヤ___1
  6
CONTINUOUS
 62
    7
 10
-155.64161000000001
 20
295.33852000000002
 11
-156.36302000000001
 21
288.14136999999999
  0
LINE
  8
_0-1_レイヤ___1
  6
CONTINUOUS
 62
    7
 10
-156.36302000000001
 20
288.14136999999999
 11
-157.00277
 21
280.98728999999997
  0
LINE
  8
_0-1_レイヤ___1
  6
CONTINUOUS
 62
    7
 10
-143.072531
 20
405.74349999999998
 11
-145.10651000000001
 21
395.96442000000002
  0
LINE
  8
_0-1_レイヤ___1
  6
CONTINUOUS
 62
    7
 10
-145.10651000000001
 20
395.96442000000002
 11
-142.18094000000002
 21
395.37204000000003
  0
LINE
  8
_0-1_レイヤ___1
  6
CONTINUOUS
 62
    7
 10
-140.19553200000001
 20
405.15111000000002
 11
-143.072531
 21
405.74349999999998
  0
LINE
  8
_0-1_レイヤ___1
  6
CONTINUOUS
 62
    7
 10
-142.18094000000002
 20
395.37204000000003
 11
-142.77246300000002
 21
392.40839
  0
LINE
  8
_0-1_レイヤ___1
  6
CONTINUOUS
 62
    7
 10
-142.77246300000002
 20
392.40839
 11
-143.28302600000001
 21
389.48781000000002
  0
LINE
  8
_0-1_レイヤ___1
  6
CONTINUOUS
 62
    7
 10
-143.28302600000001
 20
389.48781000000002
 11
-143.83423999999999
 21
386.56706000000003
  0
LINE
  8
_0-1_レイヤ___1
  6
CONTINUOUS
 62
    7
 10
-143.83423999999999
 20
386.56706000000003
 11
-144.34480000000002
 21
383.60342000000003
  0
LINE
  8
_0-1_レイヤ___1
  6
CONTINUOUS
 62
    7
 10
-144.34480000000002
 20
383.60342000000003
 11
-144.84744000000001
 21
380.68214999999998
  0
LINE
  8
_0-1_レイヤ___1
  6
CONTINUOUS
 62
    7
 10
-144.84744000000001
 20
380.68214999999998
 11
-145.31700999999998
 21
377.76139999999998
  0
LINE
  8
_0-1_レイヤ___1
  6
CONTINUOUS
 62
    7
 10
-145.31700999999998
 20
377.76139999999998
 11
-145.82756999999998
 21
374.79775000000001
  0
LINE
  8
_0-1_レイヤ___1
  6
CONTINUOUS
 62
    7
 10
-145.82756999999998
 20
374.79775000000001
 11
-146.28989999999999
 21
371.87716999999998
  0
LINE
  8
_0-1_レイヤ___1
  6
CONTINUOUS
 62
    7
 10
-146.28989999999999
 20
371.87716999999998
 11
-146.71089000000001
 21
368.91336000000001
  0
LINE
  8
_0-1_レイヤ___1
  6
CONTINUOUS
 62
    7
 10
-146.71089000000001
 20
368.91336000000001
 11
-147.18115
 21
365.95075000000003
  0
LINE
  8
_0-1_レイヤ___1
  6
CONTINUOUS
 62
    7
 10
-147.18115
 20
365.95075000000003
 11
-147.60248000000001
 21
362.9871
  0
LINE
  8
_0-1_レイヤ___1
  6
CONTINUOUS
 62
    7
 10
-147.60248000000001
 20
362.9871
 11
-148.02415999999999
 21
360.06652000000003
  0
LINE
  8
_0-1_レイヤ___1
  6
CONTINUOUS
 62
    7
 10
-148.02415999999999
 20
360.06652000000003
 11
-148.44515000000001
 21
357.14474000000001
  0
LINE
  8
_0-1_レイヤ___1
  6
CONTINUOUS
 62
    7
 10
-148.44515000000001
 20
357.14474000000001
 11
-148.82617999999999
 21
354.18144000000001
  0
LINE
  8
_0-1_レイヤ___1
  6
CONTINUOUS
 62
    7
 10
-148.82617999999999
 20
354.18144000000001
 11
-149.63647
 21
348.25484
  0
LINE
  8
_0-1_レイヤ___1
  6
CONTINUOUS
 62
    7
 10
-148.06413000000001
 20
140.82150999999999
 11
-148.06413000000001
 21
143.82736
  0
LINE
  8
_0-1_レイヤ___1
  6
CONTINUOUS
 62
    7
 10
-138.080243
 20
140.82150999999999
 11
-138.080243
 21
143.82736
  0
LINE
  8
_0-1_レイヤ___1
  6
CONTINUOUS
 62
    7
 10
-138.080243
 20
143.82736
 11
-148.06413000000001
 21
143.82736
  0
LINE
  8
_0-1_レイヤ___1
  6
CONTINUOUS
 62
    7
 10
-138.080243
 20
140.82150999999999
 11
-124.149655
 21
140.82150999999999
  0
LINE
  8
_0-1_レイヤ___1
  6
CONTINUOUS
 62
    7
 10
-136.87474900000001
 20
133.89389
 11
-188.85330999999996
 21
117.63820000000001
  0
LINE
  8
_0-1_レイヤ___1
  6
CONTINUOUS
 62
    7
 10
-188.85330999999996
 20
117.63820000000001
 11
-188.85330999999996
 21
112.64281
  0
LINE
  8
_0-1_レイヤ___1
  6
CONTINUOUS
 62
    7
 10
-188.85330999999996
 20
112.64281
 11
-188.85330999999996
 21
117.63820000000001
  0
LINE
  8
_0-1_レイヤ___1
  6
CONTINUOUS
 62
    7
 10
-188.85330999999996
 20
-198.29633999999999
 11
-156.89143999999999
 21
-198.29633999999999
  0
LINE
  8
_0-1_レイヤ___1
  6
CONTINUOUS
 62
    7
 10
-155.95920000000001
 20
-183.30948000000001
 11
-147.15870000000001
 21
-37.047957100000005
  0
LINE
  8
_0-1_レイヤ___1
  6
CONTINUOUS
 62
    7
 10
-158.96608000000003
 20
-183.13998000000004
 11
-159.56587000000002
 21
-193.13076000000001
  0
LINE
  8
_0-1_レイヤ___1
  6
CONTINUOUS
 62
    7
 10
-159.56587000000002
 20
-193.13076000000001
 11
-156.55898999999999
 21
-193.30025999999998
  0
LINE
  8
_0-1_レイヤ___1
  6
CONTINUOUS
 62
    7
 10
-158.96608000000003
 20
-183.13998000000004
 11
-155.95920000000001
 21
-183.30948000000001
  0
LINE
  8
_0-1_レイヤ___1
  6
CONTINUOUS
 62
    7
 10
-149.57371000000001
 20
-26.888371199999995
 11
-146.56682999999998
 21
-27.057869199999999
  0
LINE
  8
_0-1_レイヤ___1
  6
CONTINUOUS
 62
    7
 10
-147.15870000000001
 20
-37.047957100000005
 11
-150.16523000000001
 21
-36.878459100000001
  0
LINE
  8
_0-1_レイヤ___1
  6
CONTINUOUS
 62
    7
 10
-150.16523000000001
 20
-36.878459100000001
 11
-149.57371000000001
 21
-26.888371199999995
  0
LINE
  8
_0-1_レイヤ___1
  6
CONTINUOUS
 62
    7
 10
-146.56682999999998
 20
-27.057869199999999
 11
-137.758072
 21
119.20469
  0
LINE
  8
_0-1_レイヤ___1
  6
CONTINUOUS
 62
    7
 10
-140.76460700000001
 20
119.37315000000001
 11
-140.17273900000001
 21
129.36462
  0
LINE
  8
_0-1_レイヤ___1
  6
CONTINUOUS
 62
    7
 10
-140.17273900000001
 20
129.36462
 11
-137.166549
 21
129.15206000000001
  0
LINE
  8
_0-1_レイヤ___1
  6
CONTINUOUS
 62
    7
 10
-137.166549
 20
129.15206000000001
 11
-136.87474900000001
 21
133.89389
  0
LINE
  8
_0-1_レイヤ___1
  6
CONTINUOUS
 62
    7
 10
-140.76460700000001
 20
119.37315000000001
 11
-137.758072
 21
119.20469
  0
LINE
  8
_0-1_レイヤ___1
  6
CONTINUOUS
 62
    7
 10
-156.55898999999999
 20
-193.30025999999998
 11
-156.89143999999999
 21
-198.29633999999999
  0
LINE
  8
_0-1_レイヤ___1
  6
CONTINUOUS
 62
    7
 10
-188.85330999999996
 20
-188.30486999999999
 11
-191.85984999999999
 21
-188.30486999999999
  0
LINE
  8
_0-1_レイヤ___1
  6
CONTINUOUS
 62
    7
 10
-191.85984999999999
 20
-188.30486999999999
 11
-191.85984999999999
 21
-198.29633999999999
  0
LINE
  8
_0-1_レイヤ___1
  6
CONTINUOUS
 62
    7
 10
-191.85984999999999
 20
-198.29633999999999
 11
-188.85330999999996
 21
-198.29633999999999
  0
LINE
  8
_0-1_レイヤ___1
  6
CONTINUOUS
 62
    7
 10
-191.85984999999999
 20
-26.888371199999995
 11
-191.85984999999999
 21
-36.878459100000001
  0
LINE
  8
_0-1_レイヤ___1
  6
CONTINUOUS
 62
    7
 10
-191.85984999999999
 20
-36.878459100000001
 11
-188.85330999999996
 21
-36.878459100000001
  0
LINE
  8
_0-1_レイヤ___1
  6
CONTINUOUS
 62
    7
 10
-188.85330999999996
 20
-26.888371199999995
 11
-191.85984999999999
 21
-26.888371199999995
  0
LINE
  8
_0-1_レイヤ___1
  6
CONTINUOUS
 62
    7
 10
-188.85330999999996
 20
112.64281
 11
-191.85984999999999
 21
112.64281
  0
LINE
  8
_0-1_レイヤ___1
  6
CONTINUOUS
 62
    7
 10
-188.85330999999996
 20
102.65135000000001
 11
-191.85984999999999
 21
102.65135000000001
  0
LINE
  8
_0-1_レイヤ___1
  6
CONTINUOUS
 62
    7
 10
-191.85984999999999
 20
102.65135000000001
 11
-191.85984999999999
 21
112.64281
  0
LINE
  8
_0-1_レイヤ___1
  6
CONTINUOUS
 62
    7
 10
-188.85330999999996
 20
102.65135000000001
 11
-188.85330999999996
 21
-26.888371199999995
  0
LINE
  8
_0-1_レイヤ___1
  6
CONTINUOUS
 62
    7
 10
-188.85330999999996
 20
-36.878459100000001
 11
-188.85330999999996
 21
-188.30486999999999
  0
LINE
  8
_0-1_レイヤ___1
  6
CONTINUOUS
 62
    7
 10
-221.20096999999998
 20
404.68340999999998
 11
-220.56879000000004
 21
403.58321999999998
  0
LINE
  8
_0-1_レイヤ___1
  6
CONTINUOUS
 62
    7
 10
-220.56879000000004
 20
403.58321999999998
 11
-219.93696
 21
402.48183
  0
LINE
  8
_0-1_レイヤ___1
  6
CONTINUOUS
 62
    7
 10
-219.93696
 20
402.48183
 11
-219.33717000000001
 21
401.38112000000001
  0
LINE
  8
_0-1_レイヤ___1
  6
CONTINUOUS
 62
    7
 10
-219.33717000000001
 20
401.38112000000001
 11
-218.74565000000001
 21
400.28075000000001
  0
LINE
  8
_0-1_レイヤ___1
  6
CONTINUOUS
 62
    7
 10
-175.05736000000002
 20
139.67651000000001
 11
-182.68272999999999
 21
137.22119000000001
  0
LINE
  8
_0-1_レイヤ___1
  6
CONTINUOUS
 62
    7
 10
-238.04885999999999
 20
406.80041999999997
 11
-221.20096999999998
 21
404.68340999999998
  0
LINE
  8
_0-1_レイヤ___1
  6
CONTINUOUS
 62
    7
 10
-175.14624000000003
 20
154.70436000000001
 11
-178.15278000000001
 21
154.66233
  0
LINE
  8
_0-1_レイヤ___1
  6
CONTINUOUS
 62
    7
 10
-178.15278000000001
 20
154.66233
 11
-178.06354999999996
 21
144.67188999999999
  0
LINE
  8
_0-1_レイヤ___1
  6
CONTINUOUS
 62
    7
 10
-178.06354999999996
 20
144.67188999999999
 11
-175.10559000000001
 21
144.67188999999999
  0
LINE
  8
_0-1_レイヤ___1
  6
CONTINUOUS
 62
    7
 10
-175.10559000000001
 20
144.67188999999999
 11
-175.05736000000002
 21
142.21656999999999
  0
LINE
  8
_0-1_レイヤ___1
  6
CONTINUOUS
 62
    7
 10
-175.05736000000002
 20
142.21656999999999
 11
-175.05736000000002
 21
139.67651000000001
  0
LINE
  8
_0-1_レイヤ___1
  6
CONTINUOUS
 62
    7
 10
-178.61475999999999
 20
212.32048
 11
-181.58064999999999
 21
211.98148
  0
LINE
  8
_0-1_レイヤ___1
  6
CONTINUOUS
 62
    7
 10
-181.58064999999999
 20
211.98148
 11
-180.55985999999996
 21
202.03308000000001
  0
LINE
  8
_0-1_レイヤ___1
  6
CONTINUOUS
 62
    7
 10
-180.55985999999996
 20
202.03308000000001
 11
-177.56124999999997
 21
202.37173000000001
  0
LINE
  8
_0-1_レイヤ___1
  6
CONTINUOUS
 62
    7
 10
-177.56124999999997
 20
202.37173000000001
 11
-177.30183999999997
 21
199.40895
  0
LINE
  8
_0-1_レイヤ___1
  6
CONTINUOUS
 62
    7
 10
-177.30183999999997
 20
199.40895
 11
-177.01038
 21
196.40344999999999
  0
LINE
  8
_0-1_レイヤ___1
  6
CONTINUOUS
 62
    7
 10
-177.01038
 20
196.40344999999999
 11
-176.75097
 21
193.43962999999999
  0
LINE
  8
_0-1_レイヤ___1
  6
CONTINUOUS
 62
    7
 10
-176.75097
 20
193.43962999999999
 11
-176.49982
 21
190.47615999999999
  0
LINE
  8
_0-1_レイヤ___1
  6
CONTINUOUS
 62
    7
 10
-176.49982
 20
190.47615999999999
 11
-176.28898000000004
 21
187.51338000000001
  0
LINE
  8
_0-1_レイヤ___1
  6
CONTINUOUS
 62
    7
 10
-176.28898000000004
 20
187.51338000000001
 11
-176.07813999999996
 21
184.50753
  0
LINE
  8
_0-1_レイヤ___1
  6
CONTINUOUS
 62
    7
 10
-176.07813999999996
 20
184.50753
 11
-175.98926
 21
183.02614
  0
LINE
  8
_0-1_レイヤ___1
  6
CONTINUOUS
 62
    7
 10
-175.98926
 20
183.02614
 11
-175.90795000000003
 21
181.50169
  0
LINE
  8
_0-1_レイヤ___1
  6
CONTINUOUS
 62
    7
 10
-175.90795000000003
 20
181.50169
 11
-175.81871999999998
 21
180.02029999999999
  0
LINE
  8
_0-1_レイヤ___1
  6
CONTINUOUS
 62
    7
 10
-175.81871999999998
 20
180.02029999999999
 11
-175.73775999999998
 21
178.53822
  0
LINE
  8
_0-1_レイヤ___1
  6
CONTINUOUS
 62
    7
 10
-175.73775999999998
 20
178.53822
 11
-175.60822999999999
 21
175.61745999999999
  0
LINE
  8
_0-1_レイヤ___1
  6
CONTINUOUS
 62
    7
 10
-175.60822999999999
 20
175.61745999999999
 11
-175.56758000000002
 21
174.13606999999999
  0
LINE
  8
_0-1_レイヤ___1
  6
CONTINUOUS
 62
    7
 10
-175.56758000000002
 20
174.13606999999999
 11
-175.48662000000002
 21
172.61161999999999
  0
LINE
  8
_0-1_レイヤ___1
  6
CONTINUOUS
 62
    7
 10
-175.48662000000002
 20
172.61161999999999
 11
-175.39773000000002
 21
169.60612
  0
LINE
  8
_0-1_レイヤ___1
  6
CONTINUOUS
 62
    7
 10
-175.39773000000002
 20
169.60612
 11
-175.35708
 21
166.64299
  0
LINE
  8
_0-1_レイヤ___1
  6
CONTINUOUS
 62
    7
 10
-175.35708
 20
166.64299
 11
-175.26785000000001
 21
163.67985999999999
  0
LINE
  8
_0-1_レイヤ___1
  6
CONTINUOUS
 62
    7
 10
-175.26785000000001
 20
163.67985999999999
 11
-175.22720000000004
 21
160.67366999999999
  0
LINE
  8
_0-1_レイヤ___1
  6
CONTINUOUS
 62
    7
 10
-175.22720000000004
 20
160.67366999999999
 11
-175.18655000000001
 21
157.71055000000001
  0
LINE
  8
_0-1_レイヤ___1
  6
CONTINUOUS
 62
    7
 10
-175.18655000000001
 20
157.71055000000001
 11
-175.14624000000003
 21
154.70436000000001
  0
LINE
  8
_0-1_レイヤ___1
  6
CONTINUOUS
 62
    7
 10
-187.42386999999997
 20
279.33413000000002
 11
-190.38148999999999
 21
278.86801000000003
  0
LINE
  8
_0-1_レイヤ___1
  6
CONTINUOUS
 62
    7
 10
-190.38148999999999
 20
278.86801000000003
 11
-188.85840999999999
 21
269.00470000000001
  0
LINE
  8
_0-1_レイヤ___1
  6
CONTINUOUS
 62
    7
 10
-188.85840999999999
 20
269.00470000000001
 11
-185.90011000000004
 21
269.47082
  0
LINE
  8
_0-1_レイヤ___1
  6
CONTINUOUS
 62
    7
 10
-185.90011000000004
 20
269.47082
 11
-185.38989000000004
 21
265.91478999999998
  0
LINE
  8
_0-1_レイヤ___1
  6
CONTINUOUS
 62
    7
 10
-185.38989000000004
 20
265.91478999999998
 11
-184.87932999999998
 21
262.31569999999999
  0
LINE
  8
_0-1_レイヤ___1
  6
CONTINUOUS
 62
    7
 10
-184.87932999999998
 20
262.31569999999999
 11
-184.37669
 21
258.76002
  0
LINE
  8
_0-1_レイヤ___1
  6
CONTINUOUS
 62
    7
 10
-184.37669
 20
258.76002
 11
-184.11726999999996
 21
256.98165999999998
  0
LINE
  8
_0-1_レイヤ___1
  6
CONTINUOUS
 62
    7
 10
-184.11726999999996
 20
256.98165999999998
 11
-183.90676999999999
 21
255.20398999999998
  0
LINE
  8
_0-1_レイヤ___1
  6
CONTINUOUS
 62
    7
 10
-183.90676999999999
 20
255.20398999999998
 11
-183.65562999999997
 21
253.3836
  0
LINE
  8
_0-1_レイヤ___1
  6
CONTINUOUS
 62
    7
 10
-183.65562999999997
 20
253.3836
 11
-183.39621
 21
251.64796999999999
  0
LINE
  8
_0-1_レイヤ___1
  6
CONTINUOUS
 62
    7
 10
-183.39621
 20
251.64796999999999
 11
-183.27459999999996
 21
250.71676000000002
  0
LINE
  8
_0-1_レイヤ___1
  6
CONTINUOUS
 62
    7
 10
-183.27459999999996
 20
250.71676000000002
 11
-183.18537000000003
 21
249.82792000000001
  0
LINE
  8
_0-1_レイヤ___1
  6
CONTINUOUS
 62
    7
 10
-183.18537000000003
 20
249.82792000000001
 11
-183.10441000000003
 21
249.40485999999999
  0
LINE
  8
_0-1_レイヤ___1
  6
CONTINUOUS
 62
    7
 10
-183.10441000000003
 20
249.40485999999999
 11
-183.06376
 21
248.93874
  0
LINE
  8
_0-1_レイヤ___1
  6
CONTINUOUS
 62
    7
 10
-183.06376
 20
248.93874
 11
-182.93387999999999
 21
248.00788
  0
LINE
  8
_0-1_レイヤ___1
  6
CONTINUOUS
 62
    7
 10
-182.93387999999999
 20
248.00788
 11
-182.89391999999998
 21
247.58447999999999
  0
LINE
  8
_0-1_レイヤ___1
  6
CONTINUOUS
 62
    7
 10
-182.89391999999998
 20
247.58447999999999
 11
-182.84500000000003
 21
247.33022999999997
  0
LINE
  8
_0-1_レイヤ___1
  6
CONTINUOUS
 62
    7
 10
-182.84500000000003
 20
247.33022999999997
 11
-182.80468999999999
 21
247.16073
  0
LINE
  8
_0-1_レイヤ___1
  6
CONTINUOUS
 62
    7
 10
-182.80468999999999
 20
247.16073
 11
-182.76404000000002
 21
246.69529999999997
  0
LINE
  8
_0-1_レイヤ___1
  6
CONTINUOUS
 62
    7
 10
-182.76404000000002
 20
246.69529999999997
 11
-182.72338000000002
 21
246.27188999999998
  0
LINE
  8
_0-1_レイヤ___1
  6
CONTINUOUS
 62
    7
 10
-182.72338000000002
 20
246.27188999999998
 11
-182.59384999999997
 21
245.34034000000003
  0
LINE
  8
_0-1_レイヤ___1
  6
CONTINUOUS
 62
    7
 10
-182.59384999999997
 20
245.34034000000003
 11
-182.46431000000001
 21
244.45184999999998
  0
LINE
  8
_0-1_レイヤ___1
  6
CONTINUOUS
 62
    7
 10
-182.46431000000001
 20
244.45184999999998
 11
-182.25346999999999
 21
242.71587
  0
LINE
  8
_0-1_レイヤ___1
  6
CONTINUOUS
 62
    7
 10
-182.25346999999999
 20
242.71587
 11
-182.13185999999996
 21
241.82668999999999
  0
LINE
  8
_0-1_レイヤ___1
  6
CONTINUOUS
 62
    7
 10
-182.13185999999996
 20
241.82668999999999
 11
-182.00233000000003
 21
240.93785000000003
  0
LINE
  8
_0-1_レイヤ___1
  6
CONTINUOUS
 62
    7
 10
-182.00233000000003
 20
240.93785000000003
 11
-181.58064999999999
 21
237.33945
  0
LINE
  8
_0-1_レイヤ___1
  6
CONTINUOUS
 62
    7
 10
-181.58064999999999
 20
237.33945
 11
-181.11073999999996
 21
233.74139000000002
  0
LINE
  8
_0-1_レイヤ___1
  6
CONTINUOUS
 62
    7
 10
-181.11073999999996
 20
233.74139000000002
 11
-180.68939999999998
 21
230.18536999999998
  0
LINE
  8
_0-1_レイヤ___1
  6
CONTINUOUS
 62
    7
 10
-180.68939999999998
 20
230.18536999999998
 11
-180.26805999999999
 21
226.58731
  0
LINE
  8
_0-1_レイヤ___1
  6
CONTINUOUS
 62
    7
 10
-180.26805999999999
 20
226.58731
 11
-179.84639000000004
 21
223.03128000000001
  0
LINE
  8
_0-1_レイヤ___1
  6
CONTINUOUS
 62
    7
 10
-179.84639000000004
 20
223.03128000000001
 11
-179.41712999999999
 21
219.47524999999999
  0
LINE
  8
_0-1_レイヤ___1
  6
CONTINUOUS
 62
    7
 10
-179.41712999999999
 20
219.47524999999999
 11
-178.99579
 21
215.87651
  0
LINE
  8
_0-1_レイヤ___1
  6
CONTINUOUS
 62
    7
 10
-178.99579
 20
215.87651
 11
-178.61475999999999
 21
212.32048
  0
LINE
  8
_0-1_レイヤ___1
  6
CONTINUOUS
 62
    7
 10
-200.37398999999999
 20
345.45895000000002
 11
-203.25099
 21
344.82366999999999
  0
LINE
  8
_0-1_レイヤ___1
  6
CONTINUOUS
 62
    7
 10
-203.25099
 20
344.82366999999999
 11
-201.05439000000001
 21
335.04477000000003
  0
LINE
  8
_0-1_レイヤ___1
  6
CONTINUOUS
 62
    7
 10
-201.05439000000001
 20
335.04477000000003
 11
-198.17773999999997
 21
335.72208000000001
  0
LINE
  8
_0-1_レイヤ___1
  6
CONTINUOUS
 62
    7
 10
-198.17773999999997
 20
335.72208000000001
 11
-197.40776
 21
332.20841999999999
  0
LINE
  8
_0-1_レイヤ___1
  6
CONTINUOUS
 62
    7
 10
-197.40776
 20
332.20841999999999
 11
-196.64605
 21
328.69546000000003
  0
LINE
  8
_0-1_レイヤ___1
  6
CONTINUOUS
 62
    7
 10
-196.64605
 20
328.69546000000003
 11
-195.21186
 21
321.66746000000001
  0
LINE
  8
_0-1_レイヤ___1
  6
CONTINUOUS
 62
    7
 10
-195.21186
 20
321.66746000000001
 11
-193.80970000000002
 21
314.59778
  0
LINE
  8
_0-1_レイヤ___1
  6
CONTINUOUS
 62
    7
 10
-193.80970000000002
 20
314.59778
 11
-192.45612
 21
307.57082000000003
  0
LINE
  8
_0-1_レイヤ___1
  6
CONTINUOUS
 62
    7
 10
-192.45612
 20
307.57082000000003
 11
-191.14354000000003
 21
300.54316999999998
  0
LINE
  8
_0-1_レイヤ___1
  6
CONTINUOUS
 62
    7
 10
-191.14354000000003
 20
300.54316999999998
 11
-189.87918999999999
 21
293.47417999999999
  0
LINE
  8
_0-1_レイヤ___1
  6
CONTINUOUS
 62
    7
 10
-189.87918999999999
 20
293.47417999999999
 11
-188.64756999999997
 21
286.40415999999999
  0
LINE
  8
_0-1_レイヤ___1
  6
CONTINUOUS
 62
    7
 10
-188.64756999999997
 20
286.40415999999999
 11
-187.46418
 21
279.33413000000002
  0
LINE
  8
_0-1_レイヤ___1
  6
CONTINUOUS
 62
    7
 10
-221.46037999999999
 20
399.01071999999999
 11
-217.18123000000003
 21
389.99335000000002
  0
LINE
  8
_0-1_レイヤ___1
  6
CONTINUOUS
 62
    7
 10
-217.18123000000003
 20
389.99335000000002
 11
-214.47476
 21
391.26339000000002
  0
LINE
  8
_0-1_レイヤ___1
  6
CONTINUOUS
 62
    7
 10
-218.74565000000001
 20
400.28075000000001
 11
-221.46037999999999
 21
399.01071999999999
  0
LINE
  8
_0-1_レイヤ___1
  6
CONTINUOUS
 62
    7
 10
-214.47476
 20
391.26339000000002
 11
-213.92354999999998
 21
389.86709000000002
  0
LINE
  8
_0-1_レイヤ___1
  6
CONTINUOUS
 62
    7
 10
-213.92354999999998
 20
389.86709000000002
 11
-213.33236999999997
 21
388.4701
  0
LINE
  8
_0-1_レイヤ___1
  6
CONTINUOUS
 62
    7
 10
-213.33236999999997
 20
388.4701
 11
-212.22994
 21
385.67579000000001
  0
LINE
  8
_0-1_レイヤ___1
  6
CONTINUOUS
 62
    7
 10
-212.22994
 20
385.67579000000001
 11
-211.16816
 21
382.88146999999998
  0
LINE
  8
_0-1_レイヤ___1
  6
CONTINUOUS
 62
    7
 10
-211.16816
 20
382.88146999999998
 11
-210.15530000000001
 21
380.04512
  0
LINE
  8
_0-1_レイヤ___1
  6
CONTINUOUS
 62
    7
 10
-210.15530000000001
 20
380.04512
 11
-209.18275
 21
377.20877999999999
  0
LINE
  8
_0-1_レイヤ___1
  6
CONTINUOUS
 62
    7
 10
-209.18275
 20
377.20877999999999
 11
-208.25085000000001
 21
374.37243000000001
  0
LINE
  8
_0-1_レイヤ___1
  6
CONTINUOUS
 62
    7
 10
-208.25085000000001
 20
374.37243000000001
 11
-207.35926000000001
 21
371.53608000000003
  0
LINE
  8
_0-1_レイヤ___1
  6
CONTINUOUS
 62
    7
 10
-207.35926000000001
 20
371.53608000000003
 11
-206.46802000000002
 21
368.65735999999998
  0
LINE
  8
_0-1_レイヤ___1
  6
CONTINUOUS
 62
    7
 10
-206.46802000000002
 20
368.65735999999998
 11
-205.66565000000003
 21
365.82119
  0
LINE
  8
_0-1_レイヤ___1
  6
CONTINUOUS
 62
    7
 10
-205.66565000000003
 20
365.82119
 11
-204.82298000000003
 21
362.94245999999998
  0
LINE
  8
_0-1_レイヤ___1
  6
CONTINUOUS
 62
    7
 10
-204.82298000000003
 20
362.94245999999998
 11
-204.01234999999997
 21
360.02170999999998
  0
LINE
  8
_0-1_レイヤ___1
  6
CONTINUOUS
 62
    7
 10
-204.01234999999997
 20
360.02170999999998
 11
-203.25099
 21
357.14350999999999
  0
LINE
  8
_0-1_レイヤ___1
  6
CONTINUOUS
 62
    7
 10
-203.25099
 20
357.14350999999999
 11
-202.48892999999998
 21
354.22172
  0
LINE
  8
_0-1_レイヤ___1
  6
CONTINUOUS
 62
    7
 10
-202.48892999999998
 20
354.22172
 11
-201.7758
 21
351.30113999999998
  0
LINE
  8
_0-1_レイヤ___1
  6
CONTINUOUS
 62
    7
 10
-201.7758
 20
351.30113999999998
 11
-201.05439000000001
 21
348.37970000000001
  0
LINE
  8
_0-1_レイヤ___1
  6
CONTINUOUS
 62
    7
 10
-201.05439000000001
 20
348.37970000000001
 11
-200.37398999999999
 21
345.45895000000002
  0
LINE
  8
_0-1_レイヤ___1
  6
CONTINUOUS
 62
    7
 10
-253.75470999999999
 20
228.87243999999998
 11
-253.80327999999997
 21
233.61392000000001
  0
LINE
  8
_0-1_レイヤ___1
  6
CONTINUOUS
 62
    7
 10
-253.80327999999997
 20
233.61392000000001
 11
-253.75470999999999
 21
238.48219
  0
LINE
  8
_0-1_レイヤ___1
  6
CONTINUOUS
 62
    7
 10
-253.75470999999999
 20
238.48219
 11
-253.50322
 21
248.04991000000001
  0
LINE
  8
_0-1_レイヤ___1
  6
CONTINUOUS
 62
    7
 10
-253.50322
 20
248.04991000000001
 11
-253.12218999999999
 21
257.65931
  0
LINE
  8
_0-1_レイヤ___1
  6
CONTINUOUS
 62
    7
 10
-253.12218999999999
 20
257.65931
 11
-252.61197000000004
 21
267.22703000000001
  0
LINE
  8
_0-1_レイヤ___1
  6
CONTINUOUS
 62
    7
 10
-252.61197000000004
 20
267.22703000000001
 11
-252.06074999999998
 21
276.83677999999998
  0
LINE
  8
_0-1_レイヤ___1
  6
CONTINUOUS
 62
    7
 10
-252.06074999999998
 20
276.83677999999998
 11
-251.38827000000003
 21
286.44619
  0
LINE
  8
_0-1_レイヤ___1
  6
CONTINUOUS
 62
    7
 10
-251.38827000000003
 20
286.44619
 11
-250.66721000000001
 21
295.97152999999997
  0
LINE
  8
_0-1_レイヤ___1
  6
CONTINUOUS
 62
    7
 10
-250.66721000000001
 20
295.97152999999997
 11
-249.82384999999999
 21
305.53856000000002
  0
LINE
  8
_0-1_レイヤ___1
  6
CONTINUOUS
 62
    7
 10
-253.04123000000004
 20
129.21995000000001
 11
-253.67340000000002
 21
218.88201000000001
  0
LINE
  8
_0-1_レイヤ___1
  6
CONTINUOUS
 62
    7
 10
-252.95233999999999
 20
114.23412999999999
 11
-252.99299999999999
 21
119.22952000000001
  0
LINE
  8
_0-1_レイヤ___1
  6
CONTINUOUS
 62
    7
 10
-256.03984000000003
 20
129.21995000000001
 11
-253.04123000000004
 21
129.21995000000001
  0
LINE
  8
_0-1_レイヤ___1
  6
CONTINUOUS
 62
    7
 10
-252.99299999999999
 20
119.22952000000001
 11
-255.95888000000002
 21
119.18749
  0
LINE
  8
_0-1_レイヤ___1
  6
CONTINUOUS
 62
    7
 10
-255.95888000000002
 20
119.18749
 11
-256.03984000000003
 21
129.21995000000001
  0
LINE
  8
_0-1_レイヤ___1
  6
CONTINUOUS
 62
    7
 10
-256.76089999999999
 20
228.83040999999997
 11
-256.68028000000004
 21
218.83963
  0
LINE
  8
_0-1_レイヤ___1
  6
CONTINUOUS
 62
    7
 10
-256.68028000000004
 20
218.83963
 11
-253.67340000000002
 21
218.88201000000001
  0
LINE
  8
_0-1_レイヤ___1
  6
CONTINUOUS
 62
    7
 10
-256.76089999999999
 20
228.83040999999997
 11
-253.75470999999999
 21
228.87243999999998
  0
LINE
  8
_0-1_レイヤ___1
  6
CONTINUOUS
 62
    7
 10
-248.93295000000001
 20
315.48662000000002
 11
-246.93928
 21
334.66374000000002
  0
LINE
  8
_0-1_レイヤ___1
  6
CONTINUOUS
 62
    7
 10
-246.93928
 20
334.66374000000002
 11
-244.74268000000001
 21
353.75612000000001
  0
LINE
  8
_0-1_レイヤ___1
  6
CONTINUOUS
 62
    7
 10
-244.74268000000001
 20
353.75612000000001
 11
-242.36832000000004
 21
372.80680999999998
  0
LINE
  8
_0-1_レイヤ___1
  6
CONTINUOUS
 62
    7
 10
-242.36832000000004
 20
372.80680999999998
 11
-239.91300000000001
 21
391.89884000000001
  0
LINE
  8
_0-1_レイヤ___1
  6
CONTINUOUS
 62
    7
 10
-251.89849000000004
 20
315.78359
 11
-252.82245999999998
 21
305.83483999999999
  0
LINE
  8
_0-1_レイヤ___1
  6
CONTINUOUS
 62
    7
 10
-252.82245999999998
 20
305.83483999999999
 11
-249.82384999999999
 21
305.53856000000002
  0
LINE
  8
_0-1_レイヤ___1
  6
CONTINUOUS
 62
    7
 10
-248.93295000000001
 20
315.48662000000002
 11
-251.89849000000004
 21
315.78359
  0
LINE
  8
_0-1_レイヤ___1
  6
CONTINUOUS
 62
    7
 10
-241.64725999999996
 20
402.18572
 11
-242.83857999999998
 21
392.27985999999999
  0
LINE
  8
_0-1_レイヤ___1
  6
CONTINUOUS
 62
    7
 10
-242.83857999999998
 20
392.27985999999999
 11
-239.91300000000001
 21
391.89884000000001
  0
LINE
  8
_0-1_レイヤ___1
  6
CONTINUOUS
 62
    7
 10
-238.04885999999999
 20
406.80041999999997
 11
-238.6893
 21
401.84706999999997
  0
LINE
  8
_0-1_レイヤ___1
  6
CONTINUOUS
 62
    7
 10
-238.6893
 20
401.84706999999997
 11
-241.64725999999996
 21
402.18572
  0
LINE
  8
_0-1_レイヤ___1
  6
CONTINUOUS
 62
    7
 10
-252.95233999999999
 20
114.23412999999999
 11
-248.21119999999996
 21
115.75790000000001
  0
LINE
  8
_0-1_レイヤ___1
  6
CONTINUOUS
 62
    7
 10
-248.21119999999996
 20
115.75790000000001
 11
-249.14345000000003
 21
118.63695999999999
  0
LINE
  8
_0-1_レイヤ___1
  6
CONTINUOUS
 62
    7
 10
-249.14345000000003
 20
118.63695999999999
 11
-239.62119999999999
 21
121.72721000000001
  0
LINE
  8
_0-1_レイヤ___1
  6
CONTINUOUS
 62
    7
 10
-239.62119999999999
 20
121.72721000000001
 11
-238.6893
 21
118.89087000000001
  0
LINE
  8
_0-1_レイヤ___1
  6
CONTINUOUS
 62
    7
 10
-183.61498
 20
140.05753000000001
 11
-193.09657000000004
 21
136.96727999999999
  0
LINE
  8
_0-1_レイヤ___1
  6
CONTINUOUS
 62
    7
 10
-193.09657000000004
 20
136.96727999999999
 11
-192.16467
 21
134.08822000000001
  0
LINE
  8
_0-1_レイヤ___1
  6
CONTINUOUS
 62
    7
 10
-183.61498
 20
140.05753000000001
 11
-182.68272999999999
 21
137.22119000000001
  0
LINE
  8
_0-1_レイヤ___1
  6
CONTINUOUS
 62
    7
 10
-192.16467
 20
134.08822000000001
 11
-238.6893
 21
118.89087000000001
  0
LINE
  8
_0-1_レイヤ___1
  6
CONTINUOUS
 62
    7
 10
-199.95092
 20
86.825800000000001
 11
-199.95092
 21
71.924379999999999
  0
LINE
  8
_0-1_レイヤ___1
  6
CONTINUOUS
 62
    7
 10
-199.95092
 20
71.924379999999999
 11
-199.95092
 21
85.894589999999994
  0
LINE
  8
_0-1_レイヤ___1
  6
CONTINUOUS
 62
    7
 10
-275.05020999999999
 20
47.032196999999996
 11
-275.05020999999999
 21
61.934302000000002
  0
LINE
  8
_0-1_レイヤ___1
  6
CONTINUOUS
 62
    7
 10
-199.95092
 20
47.032196999999996
 11
-204.94321000000002
 21
47.032196999999996
  0
LINE
  8
_0-1_レイヤ___1
  6
CONTINUOUS
 62
    7
 10
-275.00955999999996
 20
110.87119000000001
 11
-270.26877000000002
 21
109.34742
  0
LINE
  8
_0-1_レイヤ___1
  6
CONTINUOUS
 62
    7
 10
-275.05020999999999
 20
47.032196999999996
 11
-275.05020999999999
 21
61.934302000000002
  0
LINE
  8
_0-1_レイヤ___1
  6
CONTINUOUS
 62
    7
 10
-199.95092
 20
47.032196999999996
 11
-204.94321000000002
 21
47.032196999999996
  0
LINE
  8
_0-1_レイヤ___1
  6
CONTINUOUS
 62
    7
 10
-260.73894000000001
 20
106.29885999999999
 11
-259.80669999999998
 21
109.17827
  0
LINE
  8
_0-1_レイヤ___1
  6
CONTINUOUS
 62
    7
 10
-259.80669999999998
 20
109.17827
 11
-269.33686999999998
 21
112.22614999999999
  0
LINE
  8
_0-1_レイヤ___1
  6
CONTINUOUS
 62
    7
 10
-269.33686999999998
 20
112.22614999999999
 11
-270.26877000000002
 21
109.34742
  0
LINE
  8
_0-1_レイヤ___1
  6
CONTINUOUS
 62
    7
 10
-260.73894000000001
 20
106.29885999999999
 11
-214.25427000000002
 21
91.398129999999995
  0
LINE
  8
_0-1_レイヤ___1
  6
CONTINUOUS
 62
    7
 10
-214.25427000000002
 20
91.398129999999995
 11
-213.33064000000002
 21
94.276510000000002
  0
LINE
  8
_0-1_レイヤ___1
  6
CONTINUOUS
 62
    7
 10
-213.33064000000002
 20
94.276510000000002
 11
-203.80047000000002
 21
91.228290000000001
  0
LINE
  8
_0-1_レイヤ___1
  6
CONTINUOUS
 62
    7
 10
-203.80047000000002
 20
91.228290000000001
 11
-204.73203000000001
 21
88.350260000000006
  0
LINE
  8
_0-1_レイヤ___1
  6
CONTINUOUS
 62
    7
 10
-204.73203000000001
 20
88.350260000000006
 11
-199.95092
 21
86.825800000000001
  0
LINE
  8
_0-1_レイヤ___1
  6
CONTINUOUS
 62
    7
 10
-196.98504000000003
 20
61.934302000000002
 11
-196.98504000000003
 21
71.924379999999999
  0
LINE
  8
_0-1_レイヤ___1
  6
CONTINUOUS
 62
    7
 10
-196.98504000000003
 20
71.924379999999999
 11
-199.95092
 21
71.924379999999999
  0
LINE
  8
_0-1_レイヤ___1
  6
CONTINUOUS
 62
    7
 10
-196.98504000000003
 20
61.934302000000002
 11
-199.95092
 21
61.934302000000002
  0
LINE
  8
_0-1_レイヤ___1
  6
CONTINUOUS
 62
    7
 10
-199.95092
 20
61.934302000000002
 11
-199.95092
 21
47.032196999999996
  0
LINE
  8
_0-1_レイヤ___1
  6
CONTINUOUS
 62
    7
 10
-199.95092
 20
47.032196999999996
 11
-199.95092
 21
61.934302000000002
  0
LINE
  8
_0-1_レイヤ___1
  6
CONTINUOUS
 62
    7
 10
-214.97567000000004
 20
47.032196999999996
 11
-214.97567000000004
 21
44.026695000000004
  0
LINE
  8
_0-1_レイヤ___1
  6
CONTINUOUS
 62
    7
 10
-214.97567000000004
 20
44.026695000000004
 11
-204.94321000000002
 21
44.026695000000004
  0
LINE
  8
_0-1_レイヤ___1
  6
CONTINUOUS
 62
    7
 10
-204.94321000000002
 20
44.026695000000004
 11
-204.94321000000002
 21
47.032196999999996
  0
LINE
  8
_0-1_レイヤ___1
  6
CONTINUOUS
 62
    7
 10
-270.05000000000001
 20
47.032196999999996
 11
-270.05000000000001
 21
44.026695000000004
  0
LINE
  8
_0-1_レイヤ___1
  6
CONTINUOUS
 62
    7
 10
-270.05000000000001
 20
44.026695000000004
 11
-260.0172
 21
44.026695000000004
  0
LINE
  8
_0-1_レイヤ___1
  6
CONTINUOUS
 62
    7
 10
-260.0172
 20
44.026695000000004
 11
-260.0172
 21
47.032196999999996
  0
LINE
  8
_0-1_レイヤ___1
  6
CONTINUOUS
 62
    7
 10
-260.0172
 20
47.032196999999996
 11
-214.97567000000004
 21
47.032196999999996
  0
LINE
  8
_0-1_レイヤ___1
  6
CONTINUOUS
 62
    7
 10
-270.05000000000001
 20
47.032196999999996
 11
-275.05020999999999
 21
47.032196999999996
  0
LINE
  8
_0-1_レイヤ___1
  6
CONTINUOUS
 62
    7
 10
-214.97567000000004
 20
47.032196999999996
 11
-260.0172
 21
47.032196999999996
  0
LINE
  8
_0-1_レイヤ___1
  6
CONTINUOUS
 62
    7
 10
-275.00955999999996
 20
74.041049999999998
 11
-278.01609999999999
 21
74.041049999999998
  0
LINE
  8
_0-1_レイヤ___1
  6
CONTINUOUS
 62
    7
 10
-275.00955999999996
 20
84.031829999999999
 11
-278.01609999999999
 21
84.031829999999999
  0
LINE
  8
_0-1_レイヤ___1
  6
CONTINUOUS
 62
    7
 10
-278.01609999999999
 20
84.031829999999999
 11
-278.01609999999999
 21
74.041049999999998
  0
LINE
  8
_0-1_レイヤ___1
  6
CONTINUOUS
 62
    7
 10
-275.00955999999996
 20
84.031829999999999
 11
-275.00955999999996
 21
110.87119000000001
  0
LINE
  8
_0-1_レイヤ___1
  6
CONTINUOUS
 62
    7
 10
-275.05020999999999
 20
47.032196999999996
 11
-275.05020999999999
 21
74.041049999999998
  0
LINE
  8
_0-1_レイヤ___1
  6
CONTINUOUS
 62
    7
 10
-275.00955999999996
 20
84.031829999999999
 11
-275.00955999999996
 21
110.87119000000001
  0
LINE
  8
_0-0_0
  6
DASHED1
 62
    7
 10
392.64393999999999
 20
336.38815
 11
392.64393999999999
 21
340.20929999999998
  0
CIRCLE
  8
_0-0_0
  6
CENTER1
 62
    7
 10
175.14501000000001
 20
109.84155999999999
 40
10
  0
LINE
  8
_0-1_レイヤ___1
  6
CONTINUOUS
 62
    7
 10
342.6583
 20
122.86958999999999
 11
352.64908000000003
 21
122.86958999999999
  0
LINE
  8
_0-1_レイヤ___1
  6
CONTINUOUS
 62
    7
 10
352.64908000000003
 20
119.86409
 11
342.6583
 21
119.86409
  0
LINE
  8
_0-1_レイヤ___1
  6
CONTINUOUS
 62
    7
 10
342.6583
 20
119.86409
 11
342.6583
 21
122.86958999999999
  0
LINE
  8
_0-1_レイヤ___1
  6
CONTINUOUS
 62
    7
 10
352.64908000000003
 20
122.86958999999999
 11
352.64908000000003
 21
119.86409
  0
LINE
  8
_0-0_0
  6
CONTINUOUS
 62
    7
 10
175.6019
 20
-151.74397999999999
 11
149.25547
 21
-197.37733000000003
  0
LINE
  8
_0-0_0
  6
CONTINUOUS
 62
    7
 10
174.71344999999999
 20
-151.78784999999999
 11
201.48749000000001
 21
-198.16184999999996
  0
LINE
  8
_0-1_レイヤ___1
  6
CONTINUOUS
 62
    7
 10
175.14501000000001
 20
-188.26575000000003
 11
175.14501000000001
 21
-195.13855000000001
  0
LINE
  8
_0-1_レイヤ___1
  6
CONTINUOUS
 62
    7
 10
175.14501000000001
 20
-195.13855000000001
 11
45.139168999999995
 21
-195.13855000000001
  0
LINE
  8
_0-1_レイヤ___1
  6
CONTINUOUS
 62
    7
 10
45.139168999999995
 20
-195.13855000000001
 11
45.139168999999995
 21
-155.13341
  0
LINE
  8
_0-1_レイヤ___1
  6
CONTINUOUS
 62
    7
 10
45.139168999999995
 20
-155.13341
 11
175.14501000000001
 21
-155.13341
  0
LINE
  8
_0-1_レイヤ___1
  6
CONTINUOUS
 62
    7
 10
175.14501000000001
 20
-155.13341
 11
175.14501000000001
 21
-162.86668
  0
LINE
  8
_0-1_レイヤ___1
  6
CONTINUOUS
 62
    7
 10
305.62473
 20
-283.83652000000001
 11
175.66092
 21
-283.83652000000001
  0
LINE
  8
_0-1_レイヤ___1
  6
CONTINUOUS
 62
    7
 10
175.66092
 20
-283.83652000000001
 11
175.66092
 21
-243.83137999999997
  0
LINE
  8
_0-1_レイヤ___1
  6
CONTINUOUS
 62
    7
 10
175.66092
 20
-243.83137999999997
 11
305.62473
 21
-243.83137999999997
  0
LINE
  8
_0-1_レイヤ___1
  6
CONTINUOUS
 62
    7
 10
305.62473
 20
-243.83137999999997
 11
305.62473
 21
-283.83652000000001
  0
LINE
  8
_0-1_レイヤ___1
  6
CONTINUOUS
 62
    7
 10
305.62473
 20
-283.83652000000001
 11
175.66092
 21
-283.83652000000001
  0
LINE
  8
_0-1_レイヤ___1
  6
CONTINUOUS
 62
    7
 10
175.66092
 20
-283.83652000000001
 11
175.66092
 21
-243.83137999999997
  0
LINE
  8
_0-1_レイヤ___1
  6
CONTINUOUS
 62
    7
 10
175.66092
 20
-243.83137999999997
 11
305.62473
 21
-243.83137999999997
  0
LINE
  8
_0-1_レイヤ___1
  6
CONTINUOUS
 62
    7
 10
305.62473
 20
-243.83137999999997
 11
305.62473
 21
-283.83652000000001
  0
LINE
  8
_0-1_レイヤ___1
  6
CONTINUOUS
 62
    7
 10
335.13094000000001
 20
-283.83652000000001
 11
305.62473
 21
-283.83652000000001
  0
LINE
  8
_0-1_レイヤ___1
  6
CONTINUOUS
 62
    7
 10
16.148522
 20
-283.83652000000001
 11
16.148522
 21
-270.84023999999999
  0
LINE
  8
_0-1_レイヤ___1
  6
CONTINUOUS
 62
    7
 10
16.148522
 20
-217.83951000000002
 11
335.13094000000001
 21
-217.83951000000002
  0
LINE
  8
_0-1_レイヤ___1
  6
CONTINUOUS
 62
    7
 10
335.13094000000001
 20
-217.83951000000002
 11
335.13094000000001
 21
-230.83510000000001
  0
LINE
  8
_0-1_レイヤ___1
  6
CONTINUOUS
 62
    7
 10
335.13094000000001
 20
-283.83652000000001
 11
305.62473
 21
-283.83652000000001
  0
LINE
  8
_0-1_レイヤ___1
  6
CONTINUOUS
 62
    7
 10
16.148522
 20
-283.83652000000001
 11
16.148522
 21
-270.84023999999999
  0
LINE
  8
_0-1_レイヤ___1
  6
CONTINUOUS
 62
    7
 10
16.148522
 20
-217.83951000000002
 11
335.13094000000001
 21
-217.83951000000002
  0
LINE
  8
_0-1_レイヤ___1
  6
CONTINUOUS
 62
    7
 10
335.13094000000001
 20
-217.83951000000002
 11
335.13094000000001
 21
-230.83510000000001
  0
LINE
  8
_0-1_レイヤ___1
  6
CONTINUOUS
 62
    7
 10
175.66092
 20
-243.83137999999997
 11
305.62473
 21
-243.83137999999997
  0
LINE
  8
_0-1_レイヤ___1
  6
CONTINUOUS
 62
    7
 10
305.62473
 20
-243.83137999999997
 11
305.62473
 21
-283.83652000000001
  0
LINE
  8
_0-1_レイヤ___1
  6
CONTINUOUS
 62
    7
 10
175.66092
 20
-243.83137999999997
 11
305.62473
 21
-243.83137999999997
  0
LINE
  8
_0-1_レイヤ___1
  6
CONTINUOUS
 62
    7
 10
305.62473
 20
-243.83137999999997
 11
305.62473
 21
-283.83652000000001
  0
LINE
  8
_0-1_レイヤ___1
  6
CONTINUOUS
 62
    7
 10
175.66092
 20
-243.83137999999997
 11
45.655075999999994
 21
-243.83137999999997
  0
LINE
  8
_0-1_レイヤ___1
  6
CONTINUOUS
 62
    7
 10
45.655075999999994
 20
-243.83137999999997
 11
45.655075999999994
 21
-283.83652000000001
  0
LINE
  8
_0-1_レイヤ___1
  6
CONTINUOUS
 62
    7
 10
175.66092
 20
-243.83137999999997
 11
45.655075999999994
 21
-243.83137999999997
  0
LINE
  8
_0-1_レイヤ___1
  6
CONTINUOUS
 62
    7
 10
45.655075999999994
 20
-243.83137999999997
 11
45.655075999999994
 21
-283.83652000000001
  0
LINE
  8
_0-1_レイヤ___1
  6
CONTINUOUS
 62
    7
 10
45.655075999999994
 20
-283.83652000000001
 11
16.148522
 21
-283.83652000000001
  0
LINE
  8
_0-1_レイヤ___1
  6
CONTINUOUS
 62
    7
 10
16.148522
 20
-283.83652000000001
 11
45.655075999999994
 21
-283.83652000000001
  0
LINE
  8
_0-1_レイヤ___1
  6
CONTINUOUS
 62
    7
 10
175.66092
 20
-283.83652000000001
 11
45.655075999999994
 21
-283.83652000000001
  0
LINE
  8
_0-1_レイヤ___1
  6
CONTINUOUS
 62
    7
 10
45.655075999999994
 20
-283.83652000000001
 11
45.655075999999994
 21
-243.83137999999997
  0
LINE
  8
_0-1_レイヤ___1
  6
CONTINUOUS
 62
    7
 10
45.655075999999994
 20
-243.83137999999997
 11
175.66092
 21
-243.83137999999997
  0
LINE
  8
_0-1_レイヤ___1
  6
CONTINUOUS
 62
    7
 10
175.66092
 20
-243.83137999999997
 11
175.66092
 21
-283.83652000000001
  0
LINE
  8
_0-1_レイヤ___1
  6
CONTINUOUS
 62
    7
 10
175.66092
 20
-283.83652000000001
 11
45.655075999999994
 21
-283.83652000000001
  0
LINE
  8
_0-1_レイヤ___1
  6
CONTINUOUS
 62
    7
 10
45.655075999999994
 20
-283.83652000000001
 11
45.655075999999994
 21
-243.83137999999997
  0
LINE
  8
_0-1_レイヤ___1
  6
CONTINUOUS
 62
    7
 10
45.655075999999994
 20
-243.83137999999997
 11
175.66092
 21
-243.83137999999997
  0
LINE
  8
_0-1_レイヤ___1
  6
CONTINUOUS
 62
    7
 10
175.66092
 20
-243.83137999999997
 11
175.66092
 21
-283.83652000000001
  0
LINE
  8
_0-1_レイヤ___1
  6
CONTINUOUS
 62
    7
 10
16.148522
 20
-230.83510000000001
 11
13.143021000000005
 21
-230.83510000000001
  0
LINE
  8
_0-1_レイヤ___1
  6
CONTINUOUS
 62
    7
 10
13.143021000000005
 20
-230.83510000000001
 11
13.143021000000005
 21
-270.84023999999999
  0
LINE
  8
_0-1_レイヤ___1
  6
CONTINUOUS
 62
    7
 10
13.143021000000005
 20
-270.84023999999999
 11
16.148522
 21
-270.84023999999999
  0
LINE
  8
_0-1_レイヤ___1
  6
CONTINUOUS
 62
    7
 10
16.148522
 20
-230.83510000000001
 11
16.148522
 21
-217.83951000000002
  0
LINE
  8
_0-1_レイヤ___1
  6
CONTINUOUS
 62
    7
 10
338.13679000000002
 20
-230.83510000000001
 11
338.13679000000002
 21
-270.84023999999999
  0
LINE
  8
_0-1_レイヤ___1
  6
CONTINUOUS
 62
    7
 10
338.13679000000002
 20
-270.84023999999999
 11
335.13094000000001
 21
-270.84023999999999
  0
LINE
  8
_0-1_レイヤ___1
  6
CONTINUOUS
 62
    7
 10
335.13094000000001
 20
-230.83510000000001
 11
338.13679000000002
 21
-230.83510000000001
  0
LINE
  8
_0-1_レイヤ___1
  6
CONTINUOUS
 62
    7
 10
335.13094000000001
 20
-270.84023999999999
 11
335.13094000000001
 21
-283.83652000000001
  0
LINE
  8
_0-0_0
  6
CONTINUOUS
 62
    7
 10
174.16092
 20
-232.83951000000002
 11
174.16092
 21
-222.83951000000002
  0
LINE
  8
_0-0_0
  6
CONTINUOUS
 62
    7
 10
177.16092
 20
-232.83951000000002
 11
177.16092
 21
-222.83951000000002
  0
LINE
  8
_0-0_0
  6
CONTINUOUS
 62
    7
 10
174.16092
 20
-232.83951000000002
 11
177.16092
 21
-232.83951000000002
  0
LINE
  8
_0-0_0
  6
CONTINUOUS
 62
    7
 10
174.16092
 20
-222.83951000000002
 11
177.16092
 21
-222.83951000000002
  0
LINE
  8
_0-0_0
  6
CONTINUOUS
 62
    7
 10
132.14501000000001
 20
129.84155999999999
 11
132.14501000000001
 21
139.84155999999999
  0
LINE
  8
_0-0_0
  6
CONTINUOUS
 62
    7
 10
132.14501000000001
 20
69.841560000000001
 11
132.14501000000001
 21
79.841560000000001
  0
LINE
  8
_0-0_0
  6
CONTINUOUS
 62
    7
 10
132.14501000000001
 20
9.8415660000000003
 11
132.14501000000001
 21
19.841566
  0
LINE
  8
_0-0_0
  6
CONTINUOUS
 62
    7
 10
135.14501000000001
 20
129.84155999999999
 11
135.14501000000001
 21
139.84155999999999
  0
LINE
  8
_0-0_0
  6
CONTINUOUS
 62
    7
 10
135.14501000000001
 20
69.841560000000001
 11
135.14501000000001
 21
79.841560000000001
  0
LINE
  8
_0-0_0
  6
CONTINUOUS
 62
    7
 10
135.14501000000001
 20
9.8415660000000003
 11
135.14501000000001
 21
19.841566
  0
LINE
  8
_0-0_0
  6
CONTINUOUS
 62
    7
 10
215.14501000000001
 20
129.84155999999999
 11
215.14501000000001
 21
139.84155999999999
  0
LINE
  8
_0-0_0
  6
CONTINUOUS
 62
    7
 10
215.14501000000001
 20
69.841560000000001
 11
215.14501000000001
 21
79.841560000000001
  0
LINE
  8
_0-0_0
  6
CONTINUOUS
 62
    7
 10
215.14501000000001
 20
9.8415660000000003
 11
215.14501000000001
 21
19.841566
  0
LINE
  8
_0-0_0
  6
CONTINUOUS
 62
    7
 10
218.14501000000001
 20
69.841560000000001
 11
218.14501000000001
 21
79.841560000000001
  0
LINE
  8
_0-0_0
  6
CONTINUOUS
 62
    7
 10
218.14501000000001
 20
129.84155999999999
 11
218.14501000000001
 21
139.84155999999999
  0
LINE
  8
_0-0_0
  6
CONTINUOUS
 62
    7
 10
132.14501000000001
 20
139.84155999999999
 11
135.14501000000001
 21
139.84155999999999
  0
LINE
  8
_0-0_0
  6
CONTINUOUS
 62
    7
 10
215.14501000000001
 20
139.84155999999999
 11
218.14501000000001
 21
139.84155999999999
  0
LINE
  8
_0-0_0
  6
CONTINUOUS
 62
    7
 10
132.14501000000001
 20
79.841560000000001
 11
135.14501000000001
 21
79.841560000000001
  0
LINE
  8
_0-0_0
  6
CONTINUOUS
 62
    7
 10
215.14501000000001
 20
79.841560000000001
 11
218.14501000000001
 21
79.841560000000001
  0
LINE
  8
_0-0_0
  6
CONTINUOUS
 62
    7
 10
132.14501000000001
 20
69.841560000000001
 11
135.14501000000001
 21
69.841560000000001
  0
LINE
  8
_0-0_0
  6
CONTINUOUS
 62
    7
 10
215.14501000000001
 20
69.841560000000001
 11
218.14501000000001
 21
69.841560000000001
  0
LINE
  8
_0-0_0
  6
CONTINUOUS
 62
    7
 10
132.14501000000001
 20
19.841566
 11
135.14501000000001
 21
19.841566
  0
LINE
  8
_0-0_0
  6
CONTINUOUS
 62
    7
 10
132.14501000000001
 20
9.8415660000000003
 11
135.14501000000001
 21
9.8415660000000003
  0
LINE
  8
_0-0_0
  6
CONTINUOUS
 62
    7
 10
132.14501000000001
 20
129.84155999999999
 11
135.14501000000001
 21
129.84155999999999
  0
LINE
  8
_0-0_0
  6
CONTINUOUS
 62
    7
 10
215.14501000000001
 20
129.84155999999999
 11
218.14501000000001
 21
129.84155999999999
  0
LINE
  8
_0-0_0
  6
CONTINUOUS
 62
    7
 10
215.14501000000001
 20
19.841566
 11
218.14501000000001
 21
19.841566
  0
LINE
  8
_0-0_0
  6
CONTINUOUS
 62
    7
 10
218.14501000000001
 20
9.8415660000000003
 11
218.14501000000001
 21
19.841566
  0
LINE
  8
_0-0_0
  6
CONTINUOUS
 62
    7
 10
215.14501000000001
 20
9.8415660000000003
 11
218.14501000000001
 21
9.8415660000000003
  0
LINE
  8
_0-0_0
  6
CONTINUOUS
 62
    7
 10
-166.88058999999998
 20
-273.14963999999998
 11
-167.19510000000002
 21
-276.75919999999996
  0
LINE
  8
_0-0_0
  6
CONTINUOUS
 62
    7
 10
-165.59375
 20
-263.79264999999998
 11
-166.88058999999998
 21
-273.14963999999998
  0
LINE
  8
_0-0_0
  6
CONTINUOUS
 62
    7
 10
-164.59428000000003
 20
-258.40600000000001
 11
-165.59375
 21
-263.79264999999998
  0
LINE
  8
_0-0_0
  6
CONTINUOUS
 62
    7
 10
-164.05180000000001
 20
-255.87630000000001
 11
-164.59428000000003
 21
-258.40600000000001
  0
LINE
  8
_0-0_0
  6
CONTINUOUS
 62
    7
 10
-163.01508999999999
 20
-251.53208000000001
 11
-164.05180000000001
 21
-255.87630000000001
  0
LINE
  8
_0-0_0
  6
CONTINUOUS
 62
    7
 10
-161.86302000000001
 20
-247.20947000000001
 11
-163.01508999999999
 21
-251.53208000000001
  0
LINE
  8
_0-0_0
  6
CONTINUOUS
 62
    7
 10
-161.48007999999999
 20
-245.89420999999999
 11
-161.86302000000001
 21
-247.20947000000001
  0
LINE
  8
_0-0_0
  6
CONTINUOUS
 62
    7
 10
-137.19510400000001
 20
-195.89420999999999
 11
-137.722138
 21
-196.49309
  0
LINE
  8
_0-0_0
  6
CONTINUOUS
 62
    7
 10
-137.722138
 20
-196.49309
 11
-138.62852700000002
 21
-197.52744000000001
  0
LINE
  8
_0-0_0
  6
CONTINUOUS
 62
    7
 10
-138.62852700000002
 20
-197.52744000000001
 11
-139.52855299999999
 21
-198.56681000000003
  0
LINE
  8
_0-0_0
  6
CONTINUOUS
 62
    7
 10
-139.52855299999999
 20
-198.56681000000003
 11
-140.41818999999998
 21
-199.61437000000001
  0
LINE
  8
_0-0_0
  6
CONTINUOUS
 62
    7
 10
-140.41818999999998
 20
-199.61437000000001
 11
-141.29341199999999
 21
-200.67329000000001
  0
LINE
  8
_0-0_0
  6
CONTINUOUS
 62
    7
 10
-141.29341199999999
 20
-200.67329000000001
 11
-142.15019000000001
 21
-201.74675000000002
  0
LINE
  8
_0-0_0
  6
CONTINUOUS
 62
    7
 10
-142.15019000000001
 20
-201.74675000000002
 11
-142.63708300000002
 21
-202.37727000000001
  0
LINE
  8
_0-0_0
  6
CONTINUOUS
 62
    7
 10
-142.63708300000002
 20
-202.37727000000001
 11
-143.41134
 21
-203.41633000000002
  0
LINE
  8
_0-0_0
  6
CONTINUOUS
 62
    7
 10
-143.41134
 20
-203.41633000000002
 11
-144.69587000000001
 21
-205.24590000000001
  0
LINE
  8
_0-0_0
  6
CONTINUOUS
 62
    7
 10
-144.69587000000001
 20
-205.24590000000001
 11
-145.91879
 21
-207.11946
  0
LINE
  8
_0-0_0
  6
CONTINUOUS
 62
    7
 10
-145.91879
 20
-207.11946
 11
-147.08258999999998
 21
-209.03214000000003
  0
LINE
  8
_0-0_0
  6
CONTINUOUS
 62
    7
 10
-147.08258999999998
 20
-209.03214000000003
 11
-148.18979999999999
 21
-210.97904
  0
LINE
  8
_0-0_0
  6
CONTINUOUS
 62
    7
 10
-148.18979999999999
 20
-210.97904
 11
-149.24293
 21
-212.95528000000002
  0
LINE
  8
_0-0_0
  6
CONTINUOUS
 62
    7
 10
-149.24293
 20
-212.95528000000002
 11
-149.82996
 21
-214.11302000000001
  0
LINE
  8
_0-0_0
  6
CONTINUOUS
 62
    7
 10
-149.82996
 20
-214.11302000000001
 11
-150.62058999999999
 21
-215.73942
  0
LINE
  8
_0-0_0
  6
CONTINUOUS
 62
    7
 10
-150.62058999999999
 20
-215.73942
 11
-151.91370999999998
 21
-218.57379000000003
  0
LINE
  8
_0-0_0
  6
CONTINUOUS
 62
    7
 10
-151.91370999999998
 20
-218.57379000000003
 11
-153.12865999999997
 21
-221.44189
  0
LINE
  8
_0-0_0
  6
CONTINUOUS
 62
    7
 10
-153.12865999999997
 20
-221.44189
 11
-154.27760000000001
 21
-224.33843999999999
  0
LINE
  8
_0-0_0
  6
CONTINUOUS
 62
    7
 10
-154.27760000000001
 20
-224.33843999999999
 11
-155.37270999999998
 21
-227.25819999999999
  0
LINE
  8
_0-0_0
  6
CONTINUOUS
 62
    7
 10
-155.37270999999998
 20
-227.25819999999999
 11
-156.42614000000003
 21
-230.19591000000003
  0
LINE
  8
_0-0_0
  6
CONTINUOUS
 62
    7
 10
-156.42614000000003
 20
-230.19591000000003
 11
-157.02283
 21
-231.90592000000004
  0
LINE
  8
_0-0_0
  6
CONTINUOUS
 62
    7
 10
-157.02283
 20
-231.90592000000004
 11
-157.86545999999998
 21
-234.36752999999999
  0
LINE
  8
_0-0_0
  6
CONTINUOUS
 62
    7
 10
-157.86545999999998
 20
-234.36752999999999
 11
-158.50808000000001
 21
-236.31231000000002
  0
LINE
  8
_0-0_0
  6
CONTINUOUS
 62
    7
 10
-166.46944000000002
 20
-271.42325
 11
-166.74040000000002
 21
-273.20227
  0
LINE
  8
_0-0_0
  6
CONTINUOUS
 62
    7
 10
-166.74040000000002
 20
-273.20227
 11
-167.19454000000002
 21
-276.27022999999997
  0
LINE
  8
_0-0_0
  6
CONTINUOUS
 62
    7
 10
-167.19454000000002
 20
-276.27022999999997
 11
-167.61250999999999
 21
-279.34009000000003
  0
LINE
  8
_0-0_0
  6
CONTINUOUS
 62
    7
 10
-167.61250999999999
 20
-279.34009000000003
 11
-167.97141999999997
 21
-282.41305999999997
  0
LINE
  8
_0-0_0
  6
CONTINUOUS
 62
    7
 10
-167.97141999999997
 20
-282.41305999999997
 11
-168.24835999999999
 21
-285.49032
  0
LINE
  8
_0-0_0
  6
CONTINUOUS
 62
    7
 10
-168.24835999999999
 20
-285.49032
 11
-168.42045999999999
 21
-288.57308999999998
  0
LINE
  8
_0-0_0
  6
CONTINUOUS
 62
    7
 10
-168.42045999999999
 20
-288.57308999999998
 11
-168.46321999999998
 21
-290.36408999999998
  0
LINE
  8
_0-0_0
  6
CONTINUOUS
 62
    7
 10
-168.46321999999998
 20
-290.36408999999998
 11
-168.46523000000002
 21
-290.57517000000001
  0
LINE
  8
_0-0_0
  6
CONTINUOUS
 62
    7
 10
-168.46523000000002
 20
-290.57517000000001
 11
-168.46733
 21
-290.93919
  0
LINE
  8
_0-0_0
  6
CONTINUOUS
 62
    7
 10
-168.46733
 20
-290.93919
 11
-168.46798000000001
 21
-291.30327
  0
LINE
  8
_0-0_0
  6
CONTINUOUS
 62
    7
 10
-168.46798000000001
 20
-291.30327
 11
-168.46749
 21
-291.66741999999999
  0
LINE
  8
_0-0_0
  6
CONTINUOUS
 62
    7
 10
-168.46749
 20
-291.66741999999999
 11
-168.46618000000001
 21
-292.03161
  0
LINE
  8
_0-0_0
  6
CONTINUOUS
 62
    7
 10
-168.46618000000001
 20
-292.03161
 11
-168.46437000000003
 21
-292.39582999999999
  0
LINE
  8
_0-0_0
  6
CONTINUOUS
 62
    7
 10
-168.46437000000003
 20
-292.39582999999999
 11
-168.46321999999998
 21
-292.60708
  0
LINE
  8
_0-0_0
  6
CONTINUOUS
 62
    7
 10
-158.50808000000001
 20
-236.31231000000002
 11
-161.48007999999999
 21
-245.89420999999999
  0
LINE
  8
_0-0_0
  6
CONTINUOUS
 62
    7
 10
-128.712444
 20
-292.60708
 11
-128.712444
 21
-171.23616000000001
  0
LINE
  8
_0-0_0
  6
CONTINUOUS
 62
    7
 10
-90.544296000000003
 20
-273.14963999999998
 11
-90.229783999999995
 21
-276.75919999999996
  0
LINE
  8
_0-0_0
  6
CONTINUOUS
 62
    7
 10
-91.831130999999999
 20
-263.79264999999998
 11
-90.544296000000003
 21
-273.14963999999998
  0
LINE
  8
_0-0_0
  6
CONTINUOUS
 62
    7
 10
-92.830599000000007
 20
-258.40600000000001
 11
-91.831130999999999
 21
-263.79264999999998
  0
LINE
  8
_0-0_0
  6
CONTINUOUS
 62
    7
 10
-93.373085000000003
 20
-255.87630000000001
 11
-92.830599000000007
 21
-258.40600000000001
  0
LINE
  8
_0-0_0
  6
CONTINUOUS
 62
    7
 10
-94.40979200000001
 20
-251.53208000000001
 11
-93.373085000000003
 21
-255.87630000000001
  0
LINE
  8
_0-0_0
  6
CONTINUOUS
 62
    7
 10
-95.561864000000014
 20
-247.20947000000001
 11
-94.40979200000001
 21
-251.53208000000001
  0
LINE
  8
_0-0_0
  6
CONTINUOUS
 62
    7
 10
-95.944805000000002
 20
-245.89420999999999
 11
-95.561864000000014
 21
-247.20947000000001
  0
LINE
  8
_0-0_0
  6
CONTINUOUS
 62
    7
 10
-120.229784
 20
-195.89420999999999
 11
-119.70274999999998
 21
-196.49309
  0
LINE
  8
_0-0_0
  6
CONTINUOUS
 62
    7
 10
-119.70274999999998
 20
-196.49309
 11
-118.79636099999999
 21
-197.52744000000001
  0
LINE
  8
_0-0_0
  6
CONTINUOUS
 62
    7
 10
-118.79636099999999
 20
-197.52744000000001
 11
-117.896334
 21
-198.56681000000003
  0
LINE
  8
_0-0_0
  6
CONTINUOUS
 62
    7
 10
-117.896334
 20
-198.56681000000003
 11
-117.006697
 21
-199.61437000000001
  0
LINE
  8
_0-0_0
  6
CONTINUOUS
 62
    7
 10
-117.006697
 20
-199.61437000000001
 11
-116.13147600000002
 21
-200.67329000000001
  0
LINE
  8
_0-0_0
  6
CONTINUOUS
 62
    7
 10
-116.13147600000002
 20
-200.67329000000001
 11
-115.274698
 21
-201.74675000000002
  0
LINE
  8
_0-0_0
  6
CONTINUOUS
 62
    7
 10
-115.274698
 20
-201.74675000000002
 11
-114.78780399999999
 21
-202.37727000000001
  0
LINE
  8
_0-0_0
  6
CONTINUOUS
 62
    7
 10
-114.78780399999999
 20
-202.37727000000001
 11
-114.01354600000002
 21
-203.41633000000002
  0
LINE
  8
_0-0_0
  6
CONTINUOUS
 62
    7
 10
-114.01354600000002
 20
-203.41633000000002
 11
-112.72900900000002
 21
-205.24590000000001
  0
LINE
  8
_0-0_0
  6
CONTINUOUS
 62
    7
 10
-112.72900900000002
 20
-205.24590000000001
 11
-111.50609700000001
 21
-207.11946
  0
LINE
  8
_0-0_0
  6
CONTINUOUS
 62
    7
 10
-111.50609700000001
 20
-207.11946
 11
-110.34229399999998
 21
-209.03214000000003
  0
LINE
  8
_0-0_0
  6
CONTINUOUS
 62
    7
 10
-110.34229399999998
 20
-209.03214000000003
 11
-109.235084
 21
-210.97904
  0
LINE
  8
_0-0_0
  6
CONTINUOUS
 62
    7
 10
-109.235084
 20
-210.97904
 11
-108.18195400000002
 21
-212.95528000000002
  0
LINE
  8
_0-0_0
  6
CONTINUOUS
 62
    7
 10
-108.18195400000002
 20
-212.95528000000002
 11
-107.59492699999998
 21
-214.11302000000001
  0
LINE
  8
_0-0_0
  6
CONTINUOUS
 62
    7
 10
-107.59492699999998
 20
-214.11302000000001
 11
-106.80429699999999
 21
-215.73942
  0
LINE
  8
_0-0_0
  6
CONTINUOUS
 62
    7
 10
-106.80429699999999
 20
-215.73942
 11
-105.51116999999999
 21
-218.57379000000003
  0
LINE
  8
_0-0_0
  6
CONTINUOUS
 62
    7
 10
-105.51116999999999
 20
-218.57379000000003
 11
-104.296221
 21
-221.44189
  0
LINE
  8
_0-0_0
  6
CONTINUOUS
 62
    7
 10
-104.296221
 20
-221.44189
 11
-103.14727999999999
 21
-224.33843999999999
  0
LINE
  8
_0-0_0
  6
CONTINUOUS
 62
    7
 10
-103.14727999999999
 20
-224.33843999999999
 11
-102.052178
 21
-227.25819999999999
  0
LINE
  8
_0-0_0
  6
CONTINUOUS
 62
    7
 10
-102.052178
 20
-227.25819999999999
 11
-100.99874399999999
 21
-230.19591000000003
  0
LINE
  8
_0-0_0
  6
CONTINUOUS
 62
    7
 10
-100.99874399999999
 20
-230.19591000000003
 11
-100.40204900000001
 21
-231.90592000000004
  0
LINE
  8
_0-0_0
  6
CONTINUOUS
 62
    7
 10
-100.40204900000001
 20
-231.90592000000004
 11
-99.559425000000005
 21
-234.36752999999999
  0
LINE
  8
_0-0_0
  6
CONTINUOUS
 62
    7
 10
-99.559425000000005
 20
-234.36752999999999
 11
-98.916808000000003
 21
-236.31231000000002
  0
LINE
  8
_0-0_0
  6
CONTINUOUS
 62
    7
 10
-90.955438000000015
 20
-271.42325
 11
-90.684483999999998
 21
-273.20227
  0
LINE
  8
_0-0_0
  6
CONTINUOUS
 62
    7
 10
-90.684483999999998
 20
-273.20227
 11
-90.230344000000002
 21
-276.27022999999997
  0
LINE
  8
_0-0_0
  6
CONTINUOUS
 62
    7
 10
-90.230344000000002
 20
-276.27022999999997
 11
-89.812374000000005
 21
-279.34009000000003
  0
LINE
  8
_0-0_0
  6
CONTINUOUS
 62
    7
 10
-89.812374000000005
 20
-279.34009000000003
 11
-89.453467999999987
 21
-282.41305999999997
  0
LINE
  8
_0-0_0
  6
CONTINUOUS
 62
    7
 10
-89.453467999999987
 20
-282.41305999999997
 11
-89.176518999999985
 21
-285.49032
  0
LINE
  8
_0-0_0
  6
CONTINUOUS
 62
    7
 10
-89.176518999999985
 20
-285.49032
 11
-89.00442000000001
 21
-288.57308999999998
  0
LINE
  8
_0-0_0
  6
CONTINUOUS
 62
    7
 10
-89.00442000000001
 20
-288.57308999999998
 11
-88.961665000000011
 21
-290.36408999999998
  0
LINE
  8
_0-0_0
  6
CONTINUOUS
 62
    7
 10
-88.961665000000011
 20
-290.36408999999998
 11
-88.959654999999998
 21
-290.57517000000001
  0
LINE
  8
_0-0_0
  6
CONTINUOUS
 62
    7
 10
-88.959654999999998
 20
-290.57517000000001
 11
-88.95755299999999
 21
-290.93919
  0
LINE
  8
_0-0_0
  6
CONTINUOUS
 62
    7
 10
-88.95755299999999
 20
-290.93919
 11
-88.956905000000006
 21
-291.30327
  0
LINE
  8
_0-0_0
  6
CONTINUOUS
 62
    7
 10
-88.956905000000006
 20
-291.30327
 11
-88.957392999999996
 21
-291.66741999999999
  0
LINE
  8
_0-0_0
  6
CONTINUOUS
 62
    7
 10
-88.957392999999996
 20
-291.66741999999999
 11
-88.958700999999991
 21
-292.03161
  0
LINE
  8
_0-0_0
  6
CONTINUOUS
 62
    7
 10
-88.958700999999991
 20
-292.03161
 11
-88.960510999999997
 21
-292.39582999999999
  0
LINE
  8
_0-0_0
  6
CONTINUOUS
 62
    7
 10
-88.960510999999997
 20
-292.39582999999999
 11
-88.961665000000011
 21
-292.60708
  0
LINE
  8
_0-0_0
  6
CONTINUOUS
 62
    7
 10
-98.916808000000003
 20
-236.31231000000002
 11
-95.944805000000002
 21
-245.89420999999999
  0
LINE
  8
_0-0_0
  6
CONTINUOUS
 62
    7
 10
-128.712444
 20
-292.60708
 11
-128.712444
 21
-171.23616000000001
  0
LINE
  8
_0-0_0
  6
CONTINUOUS
 62
    7
 10
-120.229784
 20
-195.89420999999999
 11
-121.066284
 21
-195.09517
  0
LINE
  8
_0-0_0
  6
CONTINUOUS
 62
    7
 10
-121.066284
 20
-195.09517
 11
-122.51179000000002
 21
-193.72158000000002
  0
LINE
  8
_0-0_0
  6
CONTINUOUS
 62
    7
 10
-122.51179000000002
 20
-193.72158000000002
 11
-123.966362
 21
-192.35932000000003
  0
LINE
  8
_0-0_0
  6
CONTINUOUS
 62
    7
 10
-123.966362
 20
-192.35932000000003
 11
-125.43574000000001
 21
-191.01558
  0
LINE
  8
_0-0_0
  6
CONTINUOUS
 62
    7
 10
-125.43574000000001
 20
-191.01558
 11
-126.92566099999999
 21
-189.69752
  0
LINE
  8
_0-0_0
  6
CONTINUOUS
 62
    7
 10
-126.92566099999999
 20
-189.69752
 11
-128.44186500000001
 21
-188.41232000000002
  0
LINE
  8
_0-0_0
  6
CONTINUOUS
 62
    7
 10
-128.44186500000001
 20
-188.41232000000002
 11
-128.712444
 21
-188.19204999999999
  0
LINE
  8
_0-0_0
  6
CONTINUOUS
 62
    7
 10
-137.19510400000001
 20
-195.89420999999999
 11
-136.35860400000001
 21
-195.09517
  0
LINE
  8
_0-0_0
  6
CONTINUOUS
 62
    7
 10
-136.35860400000001
 20
-195.09517
 11
-134.91309799999999
 21
-193.72158000000002
  0
LINE
  8
_0-0_0
  6
CONTINUOUS
 62
    7
 10
-134.91309799999999
 20
-193.72158000000002
 11
-133.45852600000001
 21
-192.35932000000003
  0
LINE
  8
_0-0_0
  6
CONTINUOUS
 62
    7
 10
-133.45852600000001
 20
-192.35932000000003
 11
-131.989148
 21
-191.01558
  0
LINE
  8
_0-0_0
  6
CONTINUOUS
 62
    7
 10
-131.989148
 20
-191.01558
 11
-130.49922700000002
 21
-189.69752
  0
LINE
  8
_0-0_0
  6
CONTINUOUS
 62
    7
 10
-130.49922700000002
 20
-189.69752
 11
-128.983023
 21
-188.41232000000002
  0
LINE
  8
_0-0_0
  6
CONTINUOUS
 62
    7
 10
-128.983023
 20
-188.41232000000002
 11
-128.712444
 21
-188.19204999999999
  0
LINE
  8
_0-0_0
  6
CONTINUOUS
 62
    7
 10
449.25774000000001
 20
-227.67713000000003
 11
389.25774000000001
 21
-227.67713000000003
  0
LINE
  8
_0-0_0
  6
CONTINUOUS
 62
    7
 10
389.25774000000001
 20
-227.67713000000003
 11
389.25774000000001
 21
-277.21433000000002
  0
LINE
  8
_0-0_0
  6
CONTINUOUS
 62
    7
 10
449.25774000000001
 20
-277.21433000000002
 11
389.25774000000001
 21
-277.21433000000002
  0
LINE
  8
_0-0_0
  6
CONTINUOUS
 62
    7
 10
573.25774000000001
 20
-227.67713000000003
 11
573.25774000000001
 21
-277.21433000000002
  0
LINE
  8
_0-0_0
  6
CONTINUOUS
 62
    7
 10
543.25774000000001
 20
-302.38731999999999
 11
573.25774000000001
 21
-277.21433000000002
  0
LINE
  8
_0-0_0
  6
CONTINUOUS
 62
    7
 10
543.25774000000001
 20
-222.38731999999999
 11
573.25774000000001
 21
-227.67713000000003
  0
LINE
  8
_0-0_0
  6
CONTINUOUS
 62
    7
 10
479.25774000000001
 20
-222.38731999999999
 11
543.25774000000001
 21
-222.38731999999999
  0
LINE
  8
_0-0_0
  6
CONTINUOUS
 62
    7
 10
479.25774000000001
 20
-302.38731999999999
 11
543.25774000000001
 21
-302.38731999999999
  0
LINE
  8
_0-0_0
  6
CONTINUOUS
 62
    7
 10
479.25774000000001
 20
-222.38731999999999
 11
449.25774000000001
 21
-227.67713000000003
  0
LINE
  8
_0-0_0
  6
CONTINUOUS
 62
    7
 10
427.66791999999998
 20
-231.48400000000004
 11
427.51965999999999
 21
-231.51013999999998
  0
LINE
  8
_0-0_0
  6
CONTINUOUS
 62
    7
 10
479.25774000000001
 20
-302.38731999999999
 11
449.25774000000001
 21
-277.21433000000002
  0
LINE
  8
_0-0_0
  6
CONTINUOUS
 62
    7
 10
449.25774000000001
 20
-227.67713000000003
 11
449.25774000000001
 21
-277.21433000000002
  0
LINE
  8
_0-0_0
  6
CONTINUOUS
 62
    7
 10
479.25774000000001
 20
-222.38731999999999
 11
479.25774000000001
 21
-302.38731999999999
  0
LINE
  8
_0-0_0
  6
CONTINUOUS
 62
    7
 10
543.25774000000001
 20
-222.38731999999999
 11
543.25774000000001
 21
-302.38731999999999
  0
LINE
  8
_0-1_レイヤ___1
  6
CONTINUOUS
 62
    7
 10
189.49841000000001
 20
400.51652999999999
 11
149.49327
 21
400.51652999999999
  0
LINE
  8
_0-1_レイヤ___1
  6
CONTINUOUS
 62
    7
 10
149.49327
 20
400.51652999999999
 11
149.49327
 21
397.51033000000001
  0
LINE
  8
_0-1_レイヤ___1
  6
CONTINUOUS
 62
    7
 10
189.49841000000001
 20
397.51033000000001
 11
189.49841000000001
 21
400.51652999999999
  0
LINE
  8
_0-1_レイヤ___1
  6
CONTINUOUS
 62
    7
 10
219.51276999999999
 20
397.51033000000001
 11
189.49841000000001
 21
397.51033000000001
  0
LINE
  8
_0-1_レイヤ___1
  6
CONTINUOUS
 62
    7
 10
119.52162999999999
 20
397.51033000000001
 11
219.51276999999999
 21
266.27492999999998
  0
LINE
  8
_0-1_レイヤ___1
  6
CONTINUOUS
 62
    7
 10
219.51276999999999
 20
266.27492999999998
 11
285.51046000000002
 21
266.27492999999998
  0
LINE
  8
_0-1_レイヤ___1
  6
CONTINUOUS
 62
    7
 10
285.51046000000002
 20
266.27492999999998
 11
219.51276999999999
 21
397.51033000000001
  0
LINE
  8
_0-1_レイヤ___1
  6
CONTINUOUS
 62
    7
 10
149.49327
 20
397.51033000000001
 11
119.52162999999999
 21
397.51033000000001
  0
LINE
  8
_0-1_レイヤ___1
  6
CONTINUOUS
 62
    7
 10
226.49804
 20
279.27361999999999
 11
226.49804
 21
276.26812000000001
  0
LINE
  8
_0-1_レイヤ___1
  6
CONTINUOUS
 62
    7
 10
226.49804
 20
276.26812000000001
 11
266.46046000000001
 21
276.26812000000001
  0
LINE
  8
_0-1_レイヤ___1
  6
CONTINUOUS
 62
    7
 10
266.46046000000001
 20
276.26812000000001
 11
266.46046000000001
 21
279.27361999999999
  0
LINE
  8
_0-1_レイヤ___1
  6
CONTINUOUS
 62
    7
 10
266.46046000000001
 20
279.27361999999999
 11
226.49804
 21
279.27361999999999
  0
LINE
  8
_0-1_レイヤ___1
  6
CONTINUOUS
 62
    7
 10
183.99520999999999
 20
388.57168999999999
 11
234.28671000000003
 21
288.58537000000001
  0
LINE
  8
_0-1_レイヤ___1
  6
CONTINUOUS
 62
    7
 10
234.28671000000003
 20
288.58537000000001
 11
274.29253999999997
 21
288.58537000000001
  0
LINE
  8
_0-1_レイヤ___1
  6
CONTINUOUS
 62
    7
 10
223.99966000000001
 20
388.57168999999999
 11
183.99520999999999
 21
388.57168999999999
  0
LINE
  8
_0-0_0
  6
CONTINUOUS
 62
    7
 10
539.14333999999997
 20
-36.878459100000001
 11
539.14333999999997
 21
-188.30486999999999
  0
LINE
  8
_0-1_レイヤ___1
  6
CONTINUOUS
 62
    7
 10
118.88648000000001
 20
339.66307999999998
 11
78.923370000000006
 21
339.66307999999998
  0
LINE
  8
_0-1_レイヤ___1
  6
CONTINUOUS
 62
    7
 10
78.923370000000006
 20
339.66307999999998
 11
78.923370000000006
 21
336.65688999999998
  0
LINE
  8
_0-1_レイヤ___1
  6
CONTINUOUS
 62
    7
 10
118.88648000000001
 20
339.66307999999998
 11
118.88648000000001
 21
336.65688999999998
  0
LINE
  8
_0-1_レイヤ___1
  6
CONTINUOUS
 62
    7
 10
118.88648000000001
 20
336.65688999999998
 11
148.90015
 21
336.65688999999998
  0
LINE
  8
_0-1_レイヤ___1
  6
CONTINUOUS
 62
    7
 10
48.909017000000006
 20
336.65688999999998
 11
148.90015
 21
205.42940999999999
  0
LINE
  8
_0-1_レイヤ___1
  6
CONTINUOUS
 62
    7
 10
148.90015
 20
205.42940999999999
 11
214.89785000000001
 21
205.42940999999999
  0
LINE
  8
_0-1_レイヤ___1
  6
CONTINUOUS
 62
    7
 10
214.89785000000001
 20
205.42940999999999
 11
148.90015
 21
336.65688999999998
  0
LINE
  8
_0-1_レイヤ___1
  6
CONTINUOUS
 62
    7
 10
78.923370000000006
 20
336.65688999999998
 11
48.909017000000006
 21
336.65688999999998
  0
LINE
  8
_0-1_レイヤ___1
  6
CONTINUOUS
 62
    7
 10
155.88543000000001
 20
218.42017999999999
 11
155.88543000000001
 21
215.41433000000001
  0
LINE
  8
_0-1_レイヤ___1
  6
CONTINUOUS
 62
    7
 10
155.88543000000001
 20
215.41433000000001
 11
195.89057
 21
215.41433000000001
  0
LINE
  8
_0-1_レイヤ___1
  6
CONTINUOUS
 62
    7
 10
195.89057
 20
215.41433000000001
 11
195.89057
 21
218.42017999999999
  0
LINE
  8
_0-1_レイヤ___1
  6
CONTINUOUS
 62
    7
 10
195.89057
 20
218.42017999999999
 11
155.88543000000001
 21
218.42017999999999
  0
LINE
  8
_0-1_レイヤ___1
  6
CONTINUOUS
 62
    7
 10
153.38842
 20
327.72615999999999
 11
113.38328999999999
 21
327.72615999999999
  0
LINE
  8
_0-1_レイヤ___1
  6
CONTINUOUS
 62
    7
 10
203.67993000000001
 20
227.73984999999999
 11
163.67479
 21
227.73984999999999
  0
LINE
  8
_0-1_レイヤ___1
  6
CONTINUOUS
 62
    7
 10
163.67479
 20
227.73984999999999
 11
113.38328999999999
 21
327.72615999999999
  0
LINE
  8
_0-1_レイヤ___1
  6
CONTINUOUS
 62
    7
 10
642.24748
 20
11.426448999999998
 11
671.19785999999999
 21
19.183681
  0
LINE
  8
_0-0_0
  6
CONTINUOUS
 62
    7
 10
611.29854
 20
-6.1506499999999988
 11
618.81381999999996
 21
30.027731000000003
  0
LINE
  8
_0-1_レイヤ___1
  6
CONTINUOUS
 62
    7
 10
671.19785999999999
 20
19.183681
 11
614.78225999999995
 21
-118.34048100000001
  0
LINE
  8
_0-0_0
  6
CONTINUOUS
 62
    7
 10
600.29337999999996
 20
-122.22276599999998
 11
601.06983000000002
 21
-125.120544
  0
LINE
  8
_0-0_0
  6
CONTINUOUS
 62
    7
 10
601.06983000000002
 20
-125.120544
 11
610.72909000000004
 21
-122.532353
  0
LINE
  8
_0-0_0
  6
CONTINUOUS
 62
    7
 10
609.95263999999997
 20
-119.63457599999998
 11
610.72909000000004
 21
-122.532353
  0
LINE
  8
_0-0_0
  6
CONTINUOUS
 62
    7
 10
609.95263999999997
 20
-119.63457599999998
 11
614.78225999999995
 21
-118.34048100000001
  0
LINE
  8
_0-0_0
  6
CONTINUOUS
 62
    7
 10
588.53515000000004
 20
-115.73314299999998
 11
587.53857000000005
 21
-121.39331799999999
  0
LINE
  8
_0-1_レイヤ___1
  6
CONTINUOUS
 62
    7
 10
577.84436000000005
 20
-118.59773200000001
 11
577.47483
 21
-118.69674600000002
  0
LINE
  8
_0-1_レイヤ___1
  6
CONTINUOUS
 62
    7
 10
611.23464999999999
 20
-6.1373779999999982
 11
588.53515000000004
 21
-115.73314299999998
  0
LINE
  8
_0-0_0
  6
CONTINUOUS
 62
    7
 10
595.46375
 20
-123.51686100000001
 11
600.29337999999996
 21
-122.22276599999998
  0
LINE
  8
_0-0_0
  6
CONTINUOUS
 62
    7
 10
595.46375
 20
-123.51686100000001
 11
552.78821000000005
 21
-112.081987
  0
LINE
  8
_0-0_0
  6
CONTINUOUS
 62
    7
 10
552.78821000000005
 20
-112.081987
 11
582.03485999999998
 21
29.456640999999998
  0
LINE
  8
_0-1_レイヤ___1
  6
CONTINUOUS
 62
    7
 10
552.79376000000002
 20
-112.083135
 11
574.61383000000001
 21
-6.6959300000000042
  0
LINE
  8
_0-1_レイヤ___1
  6
CONTINUOUS
 62
    7
 10
669.34937000000002
 20
-10.827564999999993
 11
668.71720000000005
 21
-11.927756000000002
  0
LINE
  8
_0-1_レイヤ___1
  6
CONTINUOUS
 62
    7
 10
668.71720000000005
 20
-11.927756000000002
 11
668.08537000000001
 21
-13.029153000000008
  0
LINE
  8
_0-1_レイヤ___1
  6
CONTINUOUS
 62
    7
 10
668.08537000000001
 20
-13.029153000000008
 11
667.48557000000005
 21
-14.129861000000005
  0
LINE
  8
_0-1_レイヤ___1
  6
CONTINUOUS
 62
    7
 10
667.48557000000005
 20
-14.129861000000005
 11
666.89404999999999
 21
-15.230225000000004
  0
LINE
  8
_0-1_レイヤ___1
  6
CONTINUOUS
 62
    7
 10
623.20576000000005
 20
-275.83447000000001
 11
630.83114
 21
-278.28979000000004
  0
LINE
  8
_0-1_レイヤ___1
  6
CONTINUOUS
 62
    7
 10
686.19727
 20
-8.7105540000000019
 11
669.34937000000002
 21
-10.827564999999993
  0
LINE
  8
_0-1_レイヤ___1
  6
CONTINUOUS
 62
    7
 10
623.29465000000005
 20
-260.80662000000001
 11
626.30118000000004
 21
-260.84865000000002
  0
LINE
  8
_0-1_レイヤ___1
  6
CONTINUOUS
 62
    7
 10
626.30118000000004
 20
-260.84865000000002
 11
626.21195
 21
-270.83907999999997
  0
LINE
  8
_0-1_レイヤ___1
  6
CONTINUOUS
 62
    7
 10
626.21195
 20
-270.83907999999997
 11
623.25399000000004
 21
-270.83907999999997
  0
LINE
  8
_0-1_レイヤ___1
  6
CONTINUOUS
 62
    7
 10
623.25399000000004
 20
-270.83907999999997
 11
623.20576000000005
 21
-273.2944
  0
LINE
  8
_0-1_レイヤ___1
  6
CONTINUOUS
 62
    7
 10
623.20576000000005
 20
-273.2944
 11
623.20576000000005
 21
-275.83447000000001
  0
LINE
  8
_0-1_レイヤ___1
  6
CONTINUOUS
 62
    7
 10
626.76316999999995
 20
-203.19049999999999
 11
629.72905000000003
 21
-203.52949000000001
  0
LINE
  8
_0-1_レイヤ___1
  6
CONTINUOUS
 62
    7
 10
629.72905000000003
 20
-203.52949000000001
 11
628.70826999999997
 21
-213.47789
  0
LINE
  8
_0-1_レイヤ___1
  6
CONTINUOUS
 62
    7
 10
628.70826999999997
 20
-213.47789
 11
625.70965999999999
 21
-213.13923999999997
  0
LINE
  8
_0-1_レイヤ___1
  6
CONTINUOUS
 62
    7
 10
625.70965999999999
 20
-213.13923999999997
 11
625.45024000000001
 21
-216.10202000000004
  0
LINE
  8
_0-1_レイヤ___1
  6
CONTINUOUS
 62
    7
 10
625.45024000000001
 20
-216.10202000000004
 11
625.15878999999995
 21
-219.10753
  0
LINE
  8
_0-1_レイヤ___1
  6
CONTINUOUS
 62
    7
 10
625.15878999999995
 20
-219.10753
 11
624.89936999999998
 21
-222.07133999999996
  0
LINE
  8
_0-1_レイヤ___1
  6
CONTINUOUS
 62
    7
 10
624.89936999999998
 20
-222.07133999999996
 11
624.64822000000004
 21
-225.03480999999999
  0
LINE
  8
_0-1_レイヤ___1
  6
CONTINUOUS
 62
    7
 10
624.64822000000004
 20
-225.03480999999999
 11
624.43737999999996
 21
-227.99759
  0
LINE
  8
_0-1_レイヤ___1
  6
CONTINUOUS
 62
    7
 10
624.43737999999996
 20
-227.99759
 11
624.22654
 21
-231.00344000000001
  0
LINE
  8
_0-1_レイヤ___1
  6
CONTINUOUS
 62
    7
 10
624.22654
 20
-231.00344000000001
 11
624.13765999999998
 21
-232.48482999999999
  0
LINE
  8
_0-1_レイヤ___1
  6
CONTINUOUS
 62
    7
 10
624.13765999999998
 20
-232.48482999999999
 11
624.05636000000004
 21
-234.00928999999996
  0
LINE
  8
_0-1_レイヤ___1
  6
CONTINUOUS
 62
    7
 10
624.05636000000004
 20
-234.00928999999996
 11
623.96713
 21
-235.49068
  0
LINE
  8
_0-1_レイヤ___1
  6
CONTINUOUS
 62
    7
 10
623.96713
 20
-235.49068
 11
623.88616999999999
 21
-236.97275999999999
  0
LINE
  8
_0-1_レイヤ___1
  6
CONTINUOUS
 62
    7
 10
623.88616999999999
 20
-236.97275999999999
 11
623.75662999999997
 21
-239.89350999999999
  0
LINE
  8
_0-1_レイヤ___1
  6
CONTINUOUS
 62
    7
 10
623.75662999999997
 20
-239.89350999999999
 11
623.71597999999994
 21
-241.37490000000003
  0
LINE
  8
_0-1_レイヤ___1
  6
CONTINUOUS
 62
    7
 10
623.71597999999994
 20
-241.37490000000003
 11
623.63502000000005
 21
-242.89935000000003
  0
LINE
  8
_0-1_レイヤ___1
  6
CONTINUOUS
 62
    7
 10
623.63502000000005
 20
-242.89935000000003
 11
623.54614000000004
 21
-245.90485999999999
  0
LINE
  8
_0-1_レイヤ___1
  6
CONTINUOUS
 62
    7
 10
623.54614000000004
 20
-245.90485999999999
 11
623.50549000000001
 21
-248.86797999999999
  0
LINE
  8
_0-1_レイヤ___1
  6
CONTINUOUS
 62
    7
 10
623.50549000000001
 20
-248.86797999999999
 11
623.41625999999997
 21
-251.83110999999997
  0
LINE
  8
_0-1_レイヤ___1
  6
CONTINUOUS
 62
    7
 10
623.41625999999997
 20
-251.83110999999997
 11
623.37561000000005
 21
-254.83730000000003
  0
LINE
  8
_0-1_レイヤ___1
  6
CONTINUOUS
 62
    7
 10
623.37561000000005
 20
-254.83730000000003
 11
623.33495000000005
 21
-257.80043000000001
  0
LINE
  8
_0-1_レイヤ___1
  6
CONTINUOUS
 62
    7
 10
623.33495000000005
 20
-257.80043000000001
 11
623.29465000000005
 21
-260.80662000000001
  0
LINE
  8
_0-1_レイヤ___1
  6
CONTINUOUS
 62
    7
 10
635.57227999999998
 20
-136.17684
 11
638.52989000000002
 21
-136.64296000000002
  0
LINE
  8
_0-1_レイヤ___1
  6
CONTINUOUS
 62
    7
 10
638.52989000000002
 20
-136.64296000000002
 11
637.00680999999997
 21
-146.50627
  0
LINE
  8
_0-1_レイヤ___1
  6
CONTINUOUS
 62
    7
 10
637.00680999999997
 20
-146.50627
 11
634.04850999999996
 21
-146.04014999999998
  0
LINE
  8
_0-1_レイヤ___1
  6
CONTINUOUS
 62
    7
 10
634.04850999999996
 20
-146.04014999999998
 11
633.53828999999996
 21
-149.59618
  0
LINE
  8
_0-1_レイヤ___1
  6
CONTINUOUS
 62
    7
 10
633.53828999999996
 20
-149.59618
 11
633.02773000000002
 21
-153.19526999999999
  0
LINE
  8
_0-1_レイヤ___1
  6
CONTINUOUS
 62
    7
 10
633.02773000000002
 20
-153.19526999999999
 11
632.52508999999998
 21
-156.75094999999999
  0
LINE
  8
_0-1_レイヤ___1
  6
CONTINUOUS
 62
    7
 10
632.52508999999998
 20
-156.75094999999999
 11
632.26567
 21
-158.52931000000001
  0
LINE
  8
_0-1_レイヤ___1
  6
CONTINUOUS
 62
    7
 10
632.26567
 20
-158.52931000000001
 11
632.05517999999995
 21
-160.30698000000001
  0
LINE
  8
_0-1_レイヤ___1
  6
CONTINUOUS
 62
    7
 10
632.05517999999995
 20
-160.30698000000001
 11
631.80403000000001
 21
-162.12737000000001
  0
LINE
  8
_0-1_レイヤ___1
  6
CONTINUOUS
 62
    7
 10
631.80403000000001
 20
-162.12737000000001
 11
631.54462000000001
 21
-163.86301
  0
LINE
  8
_0-1_レイヤ___1
  6
CONTINUOUS
 62
    7
 10
631.54462000000001
 20
-163.86301
 11
631.423
 21
-164.79422
  0
LINE
  8
_0-1_レイヤ___1
  6
CONTINUOUS
 62
    7
 10
631.423
 20
-164.79422
 11
631.33378000000005
 21
-165.68305000000001
  0
LINE
  8
_0-1_レイヤ___1
  6
CONTINUOUS
 62
    7
 10
631.33378000000005
 20
-165.68305000000001
 11
631.25282000000004
 21
-166.10611
  0
LINE
  8
_0-1_レイヤ___1
  6
CONTINUOUS
 62
    7
 10
631.25282000000004
 20
-166.10611
 11
631.21216000000004
 21
-166.57222999999999
  0
LINE
  8
_0-1_レイヤ___1
  6
CONTINUOUS
 62
    7
 10
631.21216000000004
 20
-166.57222999999999
 11
631.08227999999997
 21
-167.50309999999999
  0
LINE
  8
_0-1_レイヤ___1
  6
CONTINUOUS
 62
    7
 10
631.08227999999997
 20
-167.50309999999999
 11
631.04232000000002
 21
-167.9265
  0
LINE
  8
_0-1_レイヤ___1
  6
CONTINUOUS
 62
    7
 10
631.04232000000002
 20
-167.9265
 11
630.99339999999995
 21
-168.18074999999999
  0
LINE
  8
_0-1_レイヤ___1
  6
CONTINUOUS
 62
    7
 10
630.99339999999995
 20
-168.18074999999999
 11
630.95308999999997
 21
-168.35024000000001
  0
LINE
  8
_0-1_レイヤ___1
  6
CONTINUOUS
 62
    7
 10
630.95308999999997
 20
-168.35024000000001
 11
630.91243999999995
 21
-168.81567999999999
  0
LINE
  8
_0-1_レイヤ___1
  6
CONTINUOUS
 62
    7
 10
630.91243999999995
 20
-168.81567999999999
 11
630.87179000000003
 21
-169.23908
  0
LINE
  8
_0-1_レイヤ___1
  6
CONTINUOUS
 62
    7
 10
630.87179000000003
 20
-169.23908
 11
630.74225000000001
 21
-170.17062999999999
  0
LINE
  8
_0-1_レイヤ___1
  6
CONTINUOUS
 62
    7
 10
630.74225000000001
 20
-170.17062999999999
 11
630.61271999999997
 21
-171.05912000000001
  0
LINE
  8
_0-1_レイヤ___1
  6
CONTINUOUS
 62
    7
 10
630.61271999999997
 20
-171.05912000000001
 11
630.40188000000001
 21
-172.79510999999999
  0
LINE
  8
_0-1_レイヤ___1
  6
CONTINUOUS
 62
    7
 10
630.40188000000001
 20
-172.79510999999999
 11
630.28026999999997
 21
-173.68429
  0
LINE
  8
_0-1_レイヤ___1
  6
CONTINUOUS
 62
    7
 10
630.28026999999997
 20
-173.68429
 11
630.15072999999995
 21
-174.57311999999999
  0
LINE
  8
_0-1_レイヤ___1
  6
CONTINUOUS
 62
    7
 10
630.15072999999995
 20
-174.57311999999999
 11
629.72905000000003
 21
-178.17151999999999
  0
LINE
  8
_0-1_レイヤ___1
  6
CONTINUOUS
 62
    7
 10
629.72905000000003
 20
-178.17151999999999
 11
629.25914
 21
-181.76958000000002
  0
LINE
  8
_0-1_レイヤ___1
  6
CONTINUOUS
 62
    7
 10
629.25914
 20
-181.76958000000002
 11
628.83780000000002
 21
-185.32560999999998
  0
LINE
  8
_0-1_レイヤ___1
  6
CONTINUOUS
 62
    7
 10
628.83780000000002
 20
-185.32560999999998
 11
628.41647
 21
-188.92367000000002
  0
LINE
  8
_0-1_レイヤ___1
  6
CONTINUOUS
 62
    7
 10
628.41647
 20
-188.92367000000002
 11
627.99478999999997
 21
-192.47969000000001
  0
LINE
  8
_0-1_レイヤ___1
  6
CONTINUOUS
 62
    7
 10
627.99478999999997
 20
-192.47969000000001
 11
627.56552999999997
 21
-196.03571999999997
  0
LINE
  8
_0-1_レイヤ___1
  6
CONTINUOUS
 62
    7
 10
627.56552999999997
 20
-196.03571999999997
 11
627.14418999999998
 21
-199.63446999999996
  0
LINE
  8
_0-1_レイヤ___1
  6
CONTINUOUS
 62
    7
 10
627.14418999999998
 20
-199.63446999999996
 11
626.76316999999995
 21
-203.19049999999999
  0
LINE
  8
_0-1_レイヤ___1
  6
CONTINUOUS
 62
    7
 10
648.52238999999997
 20
-70.052028000000007
 11
651.39939000000004
 21
-70.687303999999983
  0
LINE
  8
_0-1_レイヤ___1
  6
CONTINUOUS
 62
    7
 10
651.39939000000004
 20
-70.687303999999983
 11
649.20280000000002
 21
-80.466207999999995
  0
LINE
  8
_0-1_レイヤ___1
  6
CONTINUOUS
 62
    7
 10
649.20280000000002
 20
-80.466207999999995
 11
646.32614000000001
 21
-79.788902000000007
  0
LINE
  8
_0-1_レイヤ___1
  6
CONTINUOUS
 62
    7
 10
646.32614000000001
 20
-79.788902000000007
 11
645.55615999999998
 21
-83.302554999999984
  0
LINE
  8
_0-1_レイヤ___1
  6
CONTINUOUS
 62
    7
 10
645.55615999999998
 20
-83.302554999999984
 11
644.79444999999998
 21
-86.815518999999995
  0
LINE
  8
_0-1_レイヤ___1
  6
CONTINUOUS
 62
    7
 10
644.79444999999998
 20
-86.815518999999995
 11
643.36026000000004
 21
-93.843513000000002
  0
LINE
  8
_0-1_レイヤ___1
  6
CONTINUOUS
 62
    7
 10
643.36026000000004
 20
-93.843513000000002
 11
641.95811000000003
 21
-100.913194
  0
LINE
  8
_0-1_レイヤ___1
  6
CONTINUOUS
 62
    7
 10
641.95811000000003
 20
-100.913194
 11
640.60452999999995
 21
-107.940155
  0
LINE
  8
_0-1_レイヤ___1
  6
CONTINUOUS
 62
    7
 10
640.60452999999995
 20
-107.940155
 11
639.29195000000004
 21
-114.967805
  0
LINE
  8
_0-1_レイヤ___1
  6
CONTINUOUS
 62
    7
 10
639.29195000000004
 20
-114.967805
 11
638.02760000000001
 21
-122.03679700000001
  0
LINE
  8
_0-1_レイヤ___1
  6
CONTINUOUS
 62
    7
 10
638.02760000000001
 20
-122.03679700000001
 11
636.79597000000001
 21
-129.10682199999999
  0
LINE
  8
_0-1_レイヤ___1
  6
CONTINUOUS
 62
    7
 10
636.79597000000001
 20
-129.10682199999999
 11
635.61257999999998
 21
-136.17684
  0
LINE
  8
_0-1_レイヤ___1
  6
CONTINUOUS
 62
    7
 10
669.60879
 20
-16.500259
 11
665.32962999999995
 21
-25.517624999999995
  0
LINE
  8
_0-1_レイヤ___1
  6
CONTINUOUS
 62
    7
 10
665.32962999999995
 20
-25.517624999999995
 11
662.62316999999996
 21
-24.247590000000002
  0
LINE
  8
_0-1_レイヤ___1
  6
CONTINUOUS
 62
    7
 10
666.89404999999999
 20
-15.230225000000004
 11
669.60879
 21
-16.500259
  0
LINE
  8
_0-1_レイヤ___1
  6
CONTINUOUS
 62
    7
 10
662.62316999999996
 20
-24.247590000000002
 11
662.07195000000002
 21
-25.643887000000007
  0
LINE
  8
_0-1_レイヤ___1
  6
CONTINUOUS
 62
    7
 10
662.07195000000002
 20
-25.643887000000007
 11
661.48077000000001
 21
-27.040874000000002
  0
LINE
  8
_0-1_レイヤ___1
  6
CONTINUOUS
 62
    7
 10
661.48077000000001
 20
-27.040874000000002
 11
660.37833999999998
 21
-29.835189999999997
  0
LINE
  8
_0-1_レイヤ___1
  6
CONTINUOUS
 62
    7
 10
660.37833999999998
 20
-29.835189999999997
 11
659.31655999999998
 21
-32.629506899999996
  0
LINE
  8
_0-1_レイヤ___1
  6
CONTINUOUS
 62
    7
 10
659.31655999999998
 20
-32.629506899999996
 11
658.30371000000002
 21
-35.465854899999997
  0
LINE
  8
_0-1_レイヤ___1
  6
CONTINUOUS
 62
    7
 10
658.30371000000002
 20
-35.465854899999997
 11
657.33115999999995
 21
-38.3022019
  0
LINE
  8
_0-1_レイヤ___1
  6
CONTINUOUS
 62
    7
 10
657.33115999999995
 20
-38.3022019
 11
656.39926000000003
 21
-41.138548
  0
LINE
  8
_0-1_レイヤ___1
  6
CONTINUOUS
 62
    7
 10
656.39926000000003
 20
-41.138548
 11
655.50766999999996
 21
-43.974895000000004
  0
LINE
  8
_0-1_レイヤ___1
  6
CONTINUOUS
 62
    7
 10
655.50766999999996
 20
-43.974895000000004
 11
654.61641999999995
 21
-46.853617
  0
LINE
  8
_0-1_レイヤ___1
  6
CONTINUOUS
 62
    7
 10
654.61641999999995
 20
-46.853617
 11
653.81406000000004
 21
-49.689791999999997
  0
LINE
  8
_0-1_レイヤ___1
  6
CONTINUOUS
 62
    7
 10
653.81406000000004
 20
-49.689791999999997
 11
652.97139000000004
 21
-52.568512999999996
  0
LINE
  8
_0-1_レイヤ___1
  6
CONTINUOUS
 62
    7
 10
652.97139000000004
 20
-52.568512999999996
 11
652.16075999999998
 21
-55.489264999999989
  0
LINE
  8
_0-1_レイヤ___1
  6
CONTINUOUS
 62
    7
 10
652.16075999999998
 20
-55.489264999999989
 11
651.39939000000004
 21
-58.367469999999997
  0
LINE
  8
_0-1_レイヤ___1
  6
CONTINUOUS
 62
    7
 10
651.39939000000004
 20
-58.367469999999997
 11
650.63733000000002
 21
-61.289255999999995
  0
LINE
  8
_0-1_レイヤ___1
  6
CONTINUOUS
 62
    7
 10
650.63733000000002
 20
-61.289255999999995
 11
649.92420000000004
 21
-64.209834999999998
  0
LINE
  8
_0-1_レイヤ___1
  6
CONTINUOUS
 62
    7
 10
649.92420000000004
 20
-64.209834999999998
 11
649.20280000000002
 21
-67.131276000000014
  0
LINE
  8
_0-1_レイヤ___1
  6
CONTINUOUS
 62
    7
 10
649.20280000000002
 20
-67.131276000000014
 11
648.52238999999997
 21
-70.052028000000007
  0
LINE
  8
_0-1_レイヤ___1
  6
CONTINUOUS
 62
    7
 10
701.90310999999997
 20
-186.63853
 11
701.95168999999999
 21
-181.89705000000004
  0
LINE
  8
_0-1_レイヤ___1
  6
CONTINUOUS
 62
    7
 10
701.95168999999999
 20
-181.89705000000004
 11
701.90310999999997
 21
-177.02878000000001
  0
LINE
  8
_0-1_レイヤ___1
  6
CONTINUOUS
 62
    7
 10
701.90310999999997
 20
-177.02878000000001
 11
701.65161999999998
 21
-167.46107000000001
  0
LINE
  8
_0-1_レイヤ___1
  6
CONTINUOUS
 62
    7
 10
701.65161999999998
 20
-167.46107000000001
 11
701.27058999999997
 21
-157.85165999999998
  0
LINE
  8
_0-1_レイヤ___1
  6
CONTINUOUS
 62
    7
 10
701.27058999999997
 20
-157.85165999999998
 11
700.76036999999997
 21
-148.28394
  0
LINE
  8
_0-1_レイヤ___1
  6
CONTINUOUS
 62
    7
 10
700.76036999999997
 20
-148.28394
 11
700.20916
 21
-138.67419000000001
  0
LINE
  8
_0-1_レイヤ___1
  6
CONTINUOUS
 62
    7
 10
700.20916
 20
-138.67419000000001
 11
699.53668000000005
 21
-129.06479200000001
  0
LINE
  8
_0-1_レイヤ___1
  6
CONTINUOUS
 62
    7
 10
699.53668000000005
 20
-129.06479200000001
 11
698.81561999999997
 21
-119.539447
  0
LINE
  8
_0-1_レイヤ___1
  6
CONTINUOUS
 62
    7
 10
698.81561999999997
 20
-119.539447
 11
697.97226000000001
 21
-109.97241700000001
  0
LINE
  8
_0-1_レイヤ___1
  6
CONTINUOUS
 62
    7
 10
701.18962999999997
 20
-286.29102
 11
701.82181000000003
 21
-196.62896999999998
  0
LINE
  8
_0-1_レイヤ___1
  6
CONTINUOUS
 62
    7
 10
701.10074999999995
 20
-301.27683999999999
 11
701.14139999999998
 21
-296.28145000000001
  0
LINE
  8
_0-1_レイヤ___1
  6
CONTINUOUS
 62
    7
 10
704.18823999999995
 20
-286.29102
 11
701.18962999999997
 21
-286.29102
  0
LINE
  8
_0-1_レイヤ___1
  6
CONTINUOUS
 62
    7
 10
701.14139999999998
 20
-296.28145000000001
 11
704.10727999999995
 21
-296.32348000000002
  0
LINE
  8
_0-1_レイヤ___1
  6
CONTINUOUS
 62
    7
 10
704.10727999999995
 20
-296.32348000000002
 11
704.18823999999995
 21
-286.29102
  0
LINE
  8
_0-1_レイヤ___1
  6
CONTINUOUS
 62
    7
 10
704.90930000000003
 20
-186.68056000000001
 11
704.82869000000005
 21
-196.67133999999999
  0
LINE
  8
_0-1_レイヤ___1
  6
CONTINUOUS
 62
    7
 10
704.82869000000005
 20
-196.67133999999999
 11
701.82181000000003
 21
-196.62896999999998
  0
LINE
  8
_0-1_レイヤ___1
  6
CONTINUOUS
 62
    7
 10
704.90930000000003
 20
-186.68056000000001
 11
701.90310999999997
 21
-186.63853
  0
LINE
  8
_0-1_レイヤ___1
  6
CONTINUOUS
 62
    7
 10
697.08136000000002
 20
-100.024359
 11
695.08767999999998
 21
-80.847235000000012
  0
LINE
  8
_0-1_レイヤ___1
  6
CONTINUOUS
 62
    7
 10
695.08767999999998
 20
-80.847235000000012
 11
692.89108999999996
 21
-61.754860000000008
  0
LINE
  8
_0-1_レイヤ___1
  6
CONTINUOUS
 62
    7
 10
692.89108999999996
 20
-61.754860000000008
 11
690.51673000000005
 21
-42.704171000000002
  0
LINE
  8
_0-1_レイヤ___1
  6
CONTINUOUS
 62
    7
 10
690.51673000000005
 20
-42.704171000000002
 11
688.06141000000002
 21
-23.612142000000006
  0
LINE
  8
_0-1_レイヤ___1
  6
CONTINUOUS
 62
    7
 10
700.04688999999996
 20
-99.727392000000009
 11
700.97086999999999
 21
-109.67613900000001
  0
LINE
  8
_0-1_レイヤ___1
  6
CONTINUOUS
 62
    7
 10
700.97086999999999
 20
-109.67613900000001
 11
697.97226000000001
 21
-109.97241700000001
  0
LINE
  8
_0-1_レイヤ___1
  6
CONTINUOUS
 62
    7
 10
697.08136000000002
 20
-100.024359
 11
700.04688999999996
 21
-99.727392000000009
  0
LINE
  8
_0-1_レイヤ___1
  6
CONTINUOUS
 62
    7
 10
689.79566999999997
 20
-13.325259000000003
 11
690.98698000000002
 21
-23.231115000000003
  0
LINE
  8
_0-1_レイヤ___1
  6
CONTINUOUS
 62
    7
 10
690.98698000000002
 20
-23.231115000000003
 11
688.06141000000002
 21
-23.612142000000006
  0
LINE
  8
_0-1_レイヤ___1
  6
CONTINUOUS
 62
    7
 10
686.19727
 20
-8.7105540000000019
 11
686.83771000000002
 21
-13.663911999999996
  0
LINE
  8
_0-1_レイヤ___1
  6
CONTINUOUS
 62
    7
 10
686.83771000000002
 20
-13.663911999999996
 11
689.79566999999997
 21
-13.325259000000003
  0
LINE
  8
_0-1_レイヤ___1
  6
CONTINUOUS
 62
    7
 10
701.10074999999995
 20
-301.27683999999999
 11
696.35960999999998
 21
-299.75308000000001
  0
LINE
  8
_0-1_レイヤ___1
  6
CONTINUOUS
 62
    7
 10
696.35960999999998
 20
-299.75308000000001
 11
697.29184999999995
 21
-296.87401
  0
LINE
  8
_0-1_レイヤ___1
  6
CONTINUOUS
 62
    7
 10
697.29184999999995
 20
-296.87401
 11
687.76960999999994
 21
-293.78375999999997
  0
LINE
  8
_0-1_レイヤ___1
  6
CONTINUOUS
 62
    7
 10
687.76960999999994
 20
-293.78375999999997
 11
686.83771000000002
 21
-296.62011000000001
  0
LINE
  8
_0-1_レイヤ___1
  6
CONTINUOUS
 62
    7
 10
631.76337999999998
 20
-275.45344
 11
641.24496999999997
 21
-278.54368999999997
  0
LINE
  8
_0-1_レイヤ___1
  6
CONTINUOUS
 62
    7
 10
641.24496999999997
 20
-278.54368999999997
 11
640.31307000000004
 21
-281.42276000000004
  0
LINE
  8
_0-1_レイヤ___1
  6
CONTINUOUS
 62
    7
 10
631.76337999999998
 20
-275.45344
 11
630.83114
 21
-278.28979000000004
  0
LINE
  8
_0-1_レイヤ___1
  6
CONTINUOUS
 62
    7
 10
640.31307000000004
 20
-281.42276000000004
 11
686.83771000000002
 21
-296.62011000000001
  0
LINE
  8
_0-0_0
  6
CONTINUOUS
 62
    7
 10
655.51491999999996
 20
268.88846000000001
 11
655.51491999999996
 21
258.88846000000001
  0
LINE
  8
_0-0_0
  6
CONTINUOUS
 62
    7
 10
655.51491999999996
 20
148.88846000000001
 11
655.51491999999996
 21
138.88846000000001
  0
LINE
  8
_0-0_0
  6
CONTINUOUS
 62
    7
 10
655.51491999999996
 20
208.88846000000001
 11
655.51491999999996
 21
198.88846000000001
  0
LINE
  8
_0-0_0
  6
CONTINUOUS
 62
    7
 10
691.51491999999996
 20
268.88846000000001
 11
691.51491999999996
 21
258.88846000000001
  0
LINE
  8
_0-0_0
  6
CONTINUOUS
 62
    7
 10
691.51491999999996
 20
208.88846000000001
 11
691.51491999999996
 21
198.88846000000001
  0
LINE
  8
_0-0_0
  6
CONTINUOUS
 62
    7
 10
691.51491999999996
 20
148.88846000000001
 11
691.51491999999996
 21
138.88846000000001
  0
LINE
  8
_0-0_0
  6
CONTINUOUS
 62
    7
 10
658.51491999999996
 20
148.88846000000001
 11
655.51491999999996
 21
148.88846000000001
  0
LINE
  8
_0-0_0
  6
CONTINUOUS
 62
    7
 10
658.51491999999996
 20
138.88846000000001
 11
655.51491999999996
 21
138.88846000000001
  0
LINE
  8
_0-0_0
  6
CONTINUOUS
 62
    7
 10
658.51491999999996
 20
198.88846000000001
 11
655.51491999999996
 21
198.88846000000001
  0
LINE
  8
_0-0_0
  6
CONTINUOUS
 62
    7
 10
658.51491999999996
 20
208.88846000000001
 11
655.51491999999996
 21
208.88846000000001
  0
LINE
  8
_0-0_0
  6
CONTINUOUS
 62
    7
 10
658.51491999999996
 20
258.88846000000001
 11
655.51491999999996
 21
258.88846000000001
  0
LINE
  8
_0-0_0
  6
CONTINUOUS
 62
    7
 10
658.51491999999996
 20
268.88846000000001
 11
655.51491999999996
 21
268.88846000000001
  0
LINE
  8
_0-0_0
  6
CONTINUOUS
 62
    7
 10
658.51491999999996
 20
258.88846000000001
 11
658.51491999999996
 21
208.88846000000001
  0
LINE
  8
_0-0_0
  6
CONTINUOUS
 62
    7
 10
658.51491999999996
 20
198.88846000000001
 11
658.51491999999996
 21
148.88846000000001
  0
LINE
  8
_0-0_0
  6
CONTINUOUS
 62
    7
 10
688.51491999999996
 20
258.88846000000001
 11
688.51491999999996
 21
208.88846000000001
  0
LINE
  8
_0-0_0
  6
CONTINUOUS
 62
    7
 10
688.51491999999996
 20
198.88846000000001
 11
688.51491999999996
 21
148.88846000000001
  0
LINE
  8
_0-0_0
  6
CONTINUOUS
 62
    7
 10
691.51491999999996
 20
268.88846000000001
 11
688.51491999999996
 21
268.88846000000001
  0
LINE
  8
_0-0_0
  6
CONTINUOUS
 62
    7
 10
691.51491999999996
 20
258.88846000000001
 11
688.51491999999996
 21
258.88846000000001
  0
LINE
  8
_0-0_0
  6
CONTINUOUS
 62
    7
 10
691.51491999999996
 20
208.88846000000001
 11
688.51491999999996
 21
208.88846000000001
  0
LINE
  8
_0-0_0
  6
CONTINUOUS
 62
    7
 10
691.51491999999996
 20
198.88846000000001
 11
688.51491999999996
 21
198.88846000000001
  0
LINE
  8
_0-0_0
  6
CONTINUOUS
 62
    7
 10
691.51491999999996
 20
148.88846000000001
 11
688.51491999999996
 21
148.88846000000001
  0
LINE
  8
_0-0_0
  6
CONTINUOUS
 62
    7
 10
691.51491999999996
 20
138.88846000000001
 11
688.51491999999996
 21
138.88846000000001
  0
LINE
  8
_0-0_0
  6
CONTINUOUS
 62
    7
 10
658.51491999999996
 20
288.02346999999997
 11
688.51491999999996
 21
288.02346999999997
  0
LINE
  8
_0-0_0
  6
CONTINUOUS
 62
    7
 10
688.51491999999996
 20
288.02346999999997
 11
688.51491999999996
 21
268.88846000000001
  0
LINE
  8
_0-0_0
  6
CONTINUOUS
 62
    7
 10
658.51491999999996
 20
288.02346999999997
 11
658.51491999999996
 21
268.88846000000001
  0
LINE
  8
_0-0_0
  6
CONTINUOUS
 62
    7
 10
658.51491999999996
 20
118.88846000000001
 11
688.51491999999996
 21
101.56795
  0
LINE
  8
_0-0_0
  6
CONTINUOUS
 62
    7
 10
688.51491999999996
 20
138.88846000000001
 11
688.51491999999996
 21
101.56795
  0
LINE
  8
_0-0_0
  6
CONTINUOUS
 62
    7
 10
658.51491999999996
 20
138.88846000000001
 11
658.51491999999996
 21
118.88846000000001
  0
LINE
  8
_0-0_0
  6
CONTINUOUS
 62
    7
 10
648.63229999999999
 20
323.89704999999998
 11
649.64377999999999
 21
320.42299000000003
  0
LINE
  8
_0-0_0
  6
CONTINUOUS
 62
    7
 10
647.25735999999995
 20
328.29723000000001
 11
648.63229999999999
 21
323.89704999999998
  0
LINE
  8
_0-0_0
  6
CONTINUOUS
 62
    7
 10
652.62923000000001
 20
321.09239000000002
 11
649.64377999999999
 21
320.42299000000003
  0
LINE
  8
_0-0_0
  6
CONTINUOUS
 62
    7
 10
649.63320999999996
 20
330.66890999999998
 11
646.69161999999994
 21
330.00934999999998
  0
LINE
  8
_0-0_0
  6
CONTINUOUS
 62
    7
 10
678.67533000000003
 20
338.39589000000001
 11
679.03017999999997
 21
337.26029999999997
  0
LINE
  8
_0-0_0
  6
CONTINUOUS
 62
    7
 10
677.09860000000003
 20
343.16762999999997
 11
678.67533000000003
 21
338.39589000000001
  0
LINE
  8
_0-0_0
  6
CONTINUOUS
 62
    7
 10
676.14849000000004
 20
345.94322
 11
677.09860000000003
 21
343.16762999999997
  0
LINE
  8
_0-0_0
  6
CONTINUOUS
 62
    7
 10
675.45623999999998
 20
347.9271
 11
676.14849000000004
 21
345.94322
  0
LINE
  8
_0-0_0
  6
CONTINUOUS
 62
    7
 10
674.24686999999994
 20
351.29964000000001
 11
675.45623999999998
 21
347.9271
  0
LINE
  8
_0-0_0
  6
CONTINUOUS
 62
    7
 10
672.91777999999999
 20
354.84325999999999
 11
674.24686999999994
 21
351.29964000000001
  0
LINE
  8
_0-0_0
  6
CONTINUOUS
 62
    7
 10
668.41421000000003
 20
365.46582000000001
 11
668.43728999999996
 21
365.41523999999998
  0
LINE
  8
_0-0_0
  6
CONTINUOUS
 62
    7
 10
641.74414000000002
 20
351.39402999999999
 11
641.74131999999997
 21
351.40089
  0
LINE
  8
_0-0_0
  6
CONTINUOUS
 62
    7
 10
652.81610999999998
 20
320.25894
 11
652.56344000000001
 21
321.07763999999997
  0
LINE
  8
_0-0_0
  6
CONTINUOUS
 62
    7
 10
647.25735999999995
 20
328.29723000000001
 11
646.70554000000004
 21
330.01247000000001
  0
LINE
  8
_0-0_0
  6
CONTINUOUS
 62
    7
 10
588.51491999999996
 20
118.88846000000001
 11
618.51491999999996
 21
118.88846000000001
  0
LINE
  8
_0-0_0
  6
CONTINUOUS
 62
    7
 10
645.51491999999996
 20
268.88846000000001
 11
645.51491999999996
 21
258.88846000000001
  0
LINE
  8
_0-0_0
  6
CONTINUOUS
 62
    7
 10
645.51491999999996
 20
208.88846000000001
 11
645.51491999999996
 21
198.88846000000001
  0
LINE
  8
_0-0_0
  6
CONTINUOUS
 62
    7
 10
645.51491999999996
 20
148.88846000000001
 11
645.51491999999996
 21
138.88846000000001
  0
LINE
  8
_0-0_0
  6
CONTINUOUS
 62
    7
 10
648.51491999999996
 20
288.02346999999997
 11
648.51491999999996
 21
268.88846000000001
  0
LINE
  8
_0-0_0
  6
CONTINUOUS
 62
    7
 10
648.51491999999996
 20
258.88846000000001
 11
648.51491999999996
 21
208.88846000000001
  0
LINE
  8
_0-0_0
  6
CONTINUOUS
 62
    7
 10
648.51491999999996
 20
198.88846000000001
 11
648.51491999999996
 21
148.88846000000001
  0
LINE
  8
_0-0_0
  6
CONTINUOUS
 62
    7
 10
648.51491999999996
 20
268.88846000000001
 11
645.51491999999996
 21
268.88846000000001
  0
LINE
  8
_0-0_0
  6
CONTINUOUS
 62
    7
 10
648.51491999999996
 20
258.88846000000001
 11
645.51491999999996
 21
258.88846000000001
  0
LINE
  8
_0-0_0
  6
CONTINUOUS
 62
    7
 10
648.51491999999996
 20
208.88846000000001
 11
645.51491999999996
 21
208.88846000000001
  0
LINE
  8
_0-0_0
  6
CONTINUOUS
 62
    7
 10
648.51491999999996
 20
198.88846000000001
 11
645.51491999999996
 21
198.88846000000001
  0
LINE
  8
_0-0_0
  6
CONTINUOUS
 62
    7
 10
648.51491999999996
 20
148.88846000000001
 11
645.51491999999996
 21
148.88846000000001
  0
LINE
  8
_0-0_0
  6
CONTINUOUS
 62
    7
 10
648.51491999999996
 20
138.88846000000001
 11
645.51491999999996
 21
138.88846000000001
  0
LINE
  8
_0-0_0
  6
CONTINUOUS
 62
    7
 10
648.51491999999996
 20
138.88846000000001
 11
648.51491999999996
 21
118.88846000000001
  0
LINE
  8
_0-0_0
  6
CONTINUOUS
 62
    7
 10
636.88630000000001
 20
327.81079999999997
 11
637.73676
 21
325.23703
  0
LINE
  8
_0-0_0
  6
CONTINUOUS
 62
    7
 10
637.73676
 20
325.23703
 11
639.05827999999997
 21
321.00779
  0
LINE
  8
_0-0_0
  6
CONTINUOUS
 62
    7
 10
639.05827999999997
 20
321.00779
 11
639.86680999999999
 21
318.23079999999999
  0
LINE
  8
_0-0_0
  6
CONTINUOUS
 62
    7
 10
639.8279
 20
328.47037
 11
636.88630000000001
 21
327.81079999999997
  0
LINE
  8
_0-0_0
  6
CONTINUOUS
 62
    7
 10
642.79989999999998
 20
318.88846000000001
 11
639.86680999999999
 21
318.23079999999999
  0
LINE
  8
_0-0_0
  6
CONTINUOUS
 62
    7
 10
648.51491999999996
 20
118.88846000000001
 11
618.51491999999996
 21
118.88846000000001
  0
LINE
  8
_0-0_0
  6
CONTINUOUS
 62
    7
 10
648.20041000000003
 20
291.63303000000002
 11
648.51491999999996
 21
288.02346999999997
  0
LINE
  8
_0-0_0
  6
CONTINUOUS
 62
    7
 10
646.91357000000005
 20
300.99002000000002
 11
648.20041000000003
 21
291.63303000000002
  0
LINE
  8
_0-0_0
  6
CONTINUOUS
 62
    7
 10
645.91411000000005
 20
306.37666999999999
 11
646.91357000000005
 21
300.99002000000002
  0
LINE
  8
_0-0_0
  6
CONTINUOUS
 62
    7
 10
645.37162000000001
 20
308.90638000000001
 11
645.91411000000005
 21
306.37666999999999
  0
LINE
  8
_0-0_0
  6
CONTINUOUS
 62
    7
 10
644.33491000000004
 20
313.25058999999999
 11
645.37162000000001
 21
308.90638000000001
  0
LINE
  8
_0-0_0
  6
CONTINUOUS
 62
    7
 10
643.18284000000006
 20
317.57319999999999
 11
644.33491000000004
 21
313.25058999999999
  0
LINE
  8
_0-0_0
  6
CONTINUOUS
 62
    7
 10
642.79989999999998
 20
318.88846000000001
 11
643.18284000000006
 21
317.57319999999999
  0
LINE
  8
_0-0_0
  6
CONTINUOUS
 62
    7
 10
618.51491999999996
 20
368.88846000000001
 11
619.04195000000004
 21
368.28958
  0
LINE
  8
_0-0_0
  6
CONTINUOUS
 62
    7
 10
619.04195000000004
 20
368.28958
 11
619.94834000000003
 21
367.25522999999998
  0
LINE
  8
_0-0_0
  6
CONTINUOUS
 62
    7
 10
619.94834000000003
 20
367.25522999999998
 11
620.84837000000005
 21
366.21586000000002
  0
LINE
  8
_0-0_0
  6
CONTINUOUS
 62
    7
 10
620.84837000000005
 20
366.21586000000002
 11
621.73801000000003
 21
365.16831000000002
  0
LINE
  8
_0-0_0
  6
CONTINUOUS
 62
    7
 10
621.73801000000003
 20
365.16831000000002
 11
622.61323000000004
 21
364.10937999999999
  0
LINE
  8
_0-0_0
  6
CONTINUOUS
 62
    7
 10
622.61323000000004
 20
364.10937999999999
 11
623.47001
 21
363.03591999999998
  0
LINE
  8
_0-0_0
  6
CONTINUOUS
 62
    7
 10
623.47001
 20
363.03591999999998
 11
623.95690000000002
 21
362.40539999999999
  0
LINE
  8
_0-0_0
  6
CONTINUOUS
 62
    7
 10
623.95690000000002
 20
362.40539999999999
 11
624.73116000000005
 21
361.36633999999998
  0
LINE
  8
_0-0_0
  6
CONTINUOUS
 62
    7
 10
624.73116000000005
 20
361.36633999999998
 11
626.01568999999995
 21
359.53676999999999
  0
LINE
  8
_0-0_0
  6
CONTINUOUS
 62
    7
 10
626.01568999999995
 20
359.53676999999999
 11
627.23860999999999
 21
357.66320999999999
  0
LINE
  8
_0-0_0
  6
CONTINUOUS
 62
    7
 10
627.23860999999999
 20
357.66320999999999
 11
628.40241000000003
 21
355.75053000000003
  0
LINE
  8
_0-0_0
  6
CONTINUOUS
 62
    7
 10
628.40241000000003
 20
355.75053000000003
 11
629.50962000000004
 21
353.80363999999997
  0
LINE
  8
_0-0_0
  6
CONTINUOUS
 62
    7
 10
629.50962000000004
 20
353.80363999999997
 11
630.56275000000005
 21
351.82738999999998
  0
LINE
  8
_0-0_0
  6
CONTINUOUS
 62
    7
 10
630.56275000000005
 20
351.82738999999998
 11
631.14977999999996
 21
350.66966000000002
  0
LINE
  8
_0-0_0
  6
CONTINUOUS
 62
    7
 10
631.14977999999996
 20
350.66966000000002
 11
631.94041000000004
 21
349.04325
  0
LINE
  8
_0-0_0
  6
CONTINUOUS
 62
    7
 10
631.94041000000004
 20
349.04325
 11
633.23352999999997
 21
346.20888000000002
  0
LINE
  8
_0-0_0
  6
CONTINUOUS
 62
    7
 10
633.23352999999997
 20
346.20888000000002
 11
634.44848000000002
 21
343.34079000000003
  0
LINE
  8
_0-0_0
  6
CONTINUOUS
 62
    7
 10
634.44848000000002
 20
343.34079000000003
 11
635.59742000000006
 21
340.44423
  0
LINE
  8
_0-0_0
  6
CONTINUOUS
 62
    7
 10
635.59742000000006
 20
340.44423
 11
636.69253000000003
 21
337.52447000000001
  0
LINE
  8
_0-0_0
  6
CONTINUOUS
 62
    7
 10
636.69253000000003
 20
337.52447000000001
 11
637.74595999999997
 21
334.58676000000003
  0
LINE
  8
_0-0_0
  6
CONTINUOUS
 62
    7
 10
637.74595999999997
 20
334.58676000000003
 11
638.34266000000002
 21
332.87675000000002
  0
LINE
  8
_0-0_0
  6
CONTINUOUS
 62
    7
 10
638.34266000000002
 20
332.87675000000002
 11
639.18528000000003
 21
330.41514000000001
  0
LINE
  8
_0-0_0
  6
CONTINUOUS
 62
    7
 10
639.18528000000003
 20
330.41514000000001
 11
639.8279
 21
328.47037
  0
LINE
  8
_0-0_0
  6
CONTINUOUS
 62
    7
 10
582.03485999999998
 20
29.456640999999998
 11
697.92204000000004
 21
29.456640999999998
  0
LINE
  8
_0-0_0
  6
CONTINUOUS
 62
    7
 10
641.46942000000001
 20
14.330207000000001
 11
697.92204000000004
 21
29.456640999999998
  0
LINE
  8
_0-1_レイヤ___1
  6
CONTINUOUS
 62
    7
 10
641.46942000000001
 20
14.330207000000001
 11
642.24748
 21
11.426448999999998
  0
LINE
  8
_0-0_0
  6
CONTINUOUS
 62
    7
 10
658.15378999999996
 20
292.87842000000001
 11
687.70849999999996
 21
295.27560999999997
  0
LINE
  8
_0-0_0
  6
CONTINUOUS
 62
    7
 10
681.71591999999998
 20
328.31614999999999
 11
683.12068999999997
 21
323.04538000000002
  0
LINE
  8
_0-0_0
  6
CONTINUOUS
 62
    7
 10
683.12068999999997
 20
323.04538000000002
 11
684.38592000000006
 21
317.74358999999998
  0
LINE
  8
_0-0_0
  6
CONTINUOUS
 62
    7
 10
684.38592000000006
 20
317.74358999999998
 11
685.14144999999996
 21
314.22041000000002
  0
LINE
  8
_0-0_0
  6
CONTINUOUS
 62
    7
 10
685.14144999999996
 20
314.22041000000002
 11
686.41306999999995
 21
307.36703
  0
LINE
  8
_0-0_0
  6
CONTINUOUS
 62
    7
 10
686.41306999999995
 20
307.36703
 11
687.96303
 21
296.09676000000002
  0
LINE
  8
_0-0_0
  6
CONTINUOUS
 62
    7
 10
652.81610999999998
 20
320.25894
 11
654.03135999999995
 21
315.69929000000002
  0
LINE
  8
_0-0_0
  6
CONTINUOUS
 62
    7
 10
654.03135999999995
 20
315.69929000000002
 11
655.12518999999998
 21
311.11568
  0
LINE
  8
_0-0_0
  6
CONTINUOUS
 62
    7
 10
655.12518999999998
 20
311.11568
 11
655.72094000000004
 21
308.33760999999998
  0
LINE
  8
_0-0_0
  6
CONTINUOUS
 62
    7
 10
655.72094000000004
 20
308.33760999999998
 11
656.78845000000001
 21
302.58427
  0
LINE
  8
_0-0_0
  6
CONTINUOUS
 62
    7
 10
656.78845000000001
 20
302.58427
 11
658.12383
 21
292.87430000000001
  0
LINE
  8
_0-0_0
  6
CONTINUOUS
 62
    7
 10
681.89245000000005
 20
327.65377999999998
 11
681.62904000000003
 21
328.56040000000002
  0
LINE
  8
_0-0_0
  6
CONTINUOUS
 62
    7
 10
681.62904000000003
 20
328.56040000000002
 11
681.17393000000004
 21
330.12320999999997
  0
LINE
  8
_0-0_0
  6
CONTINUOUS
 62
    7
 10
681.17393000000004
 20
330.12320999999997
 11
680.71617000000003
 21
331.68509
  0
LINE
  8
_0-0_0
  6
CONTINUOUS
 62
    7
 10
680.71617000000003
 20
331.68509
 11
680.25409000000002
 21
333.24549000000002
  0
LINE
  8
_0-0_0
  6
CONTINUOUS
 62
    7
 10
680.25409000000002
 20
333.24549000000002
 11
679.78602000000001
 21
334.80380000000002
  0
LINE
  8
_0-0_0
  6
CONTINUOUS
 62
    7
 10
679.78602000000001
 20
334.80380000000002
 11
679.31028000000003
 21
336.35946000000001
  0
LINE
  8
_0-0_0
  6
CONTINUOUS
 62
    7
 10
679.31028000000003
 20
336.35946000000001
 11
679.03017999999997
 21
337.26029999999997
  0
LINE
  8
_0-0_0
  6
CONTINUOUS
 62
    7
 10
679.03017999999997
 20
337.26029999999997
 11
678.39110000000005
 21
339.27219000000002
  0
LINE
  8
_0-0_0
  6
CONTINUOUS
 62
    7
 10
678.39110000000005
 20
339.27219000000002
 11
677.25292999999999
 21
342.72872000000001
  0
LINE
  8
_0-0_0
  6
CONTINUOUS
 62
    7
 10
677.25292999999999
 20
342.72872000000001
 11
676.07559000000003
 21
346.17261999999999
  0
LINE
  8
_0-0_0
  6
CONTINUOUS
 62
    7
 10
676.07559000000003
 20
346.17261999999999
 11
674.86698999999999
 21
349.60719
  0
LINE
  8
_0-0_0
  6
CONTINUOUS
 62
    7
 10
674.86698999999999
 20
349.60719
 11
673.63505999999995
 21
353.03577999999999
  0
LINE
  8
_0-0_0
  6
CONTINUOUS
 62
    7
 10
673.63505999999995
 20
353.03577999999999
 11
672.38769000000002
 21
356.46168999999998
  0
LINE
  8
_0-0_0
  6
CONTINUOUS
 62
    7
 10
672.38769000000002
 20
356.46168999999998
 11
671.66026999999997
 21
358.44880999999998
  0
LINE
  8
_0-0_0
  6
CONTINUOUS
 62
    7
 10
671.66026999999997
 20
358.44880999999998
 11
670.69259
 21
361.08553000000001
  0
LINE
  8
_0-0_0
  6
CONTINUOUS
 62
    7
 10
670.69259
 20
361.08553000000001
 11
669.00509999999997
 21
365.62655999999998
  0
LINE
  8
_0-0_0
  6
CONTINUOUS
 62
    7
 10
669.00509999999997
 20
365.62655999999998
 11
667.27075000000002
 21
370.14812999999998
  0
LINE
  8
_0-0_0
  6
CONTINUOUS
 62
    7
 10
667.27075000000002
 20
370.14812999999998
 11
665.46313999999995
 21
374.63506000000001
  0
LINE
  8
_0-0_0
  6
CONTINUOUS
 62
    7
 10
665.46313999999995
 20
374.63506000000001
 11
663.55588
 21
379.07216
  0
LINE
  8
_0-0_0
  6
CONTINUOUS
 62
    7
 10
663.55588
 20
379.07216
 11
661.52256
 21
383.44423
  0
LINE
  8
_0-0_0
  6
CONTINUOUS
 62
    7
 10
661.52256
 20
383.44423
 11
660.27507000000003
 21
385.94425000000001
  0
LINE
  8
_0-0_0
  6
CONTINUOUS
 62
    7
 10
660.27507000000003
 20
385.94425000000001
 11
658.76215000000002
 21
388.80306000000002
  0
LINE
  8
_0-0_0
  6
CONTINUOUS
 62
    7
 10
658.76215000000002
 20
388.80306000000002
 11
655.99671000000001
 21
393.64875000000001
  0
LINE
  8
_0-0_0
  6
CONTINUOUS
 62
    7
 10
655.99671000000001
 20
393.64875000000001
 11
653.06401000000005
 21
398.40568000000002
  0
LINE
  8
_0-0_0
  6
CONTINUOUS
 62
    7
 10
653.06401000000005
 20
398.40568000000002
 11
650.00055999999995
 21
403.09323000000001
  0
LINE
  8
_0-0_0
  6
CONTINUOUS
 62
    7
 10
650.00055999999995
 20
403.09323000000001
 11
646.84289000000001
 21
407.73077000000001
  0
LINE
  8
_0-0_0
  6
CONTINUOUS
 62
    7
 10
646.84289000000001
 20
407.73077000000001
 11
645.93723999999997
 21
409.02838000000003
  0
LINE
  8
_0-0_0
  6
CONTINUOUS
 62
    7
 10
631.85595999999998
 20
373.34217999999998
 11
645.93723999999997
 21
409.02838000000003
  0
LINE
  8
_0-0_0
  6
CONTINUOUS
 62
    7
 10
631.52322000000004
 20
373.91849999999999
 11
631.35798999999997
 21
374.20468
  0
LINE
  8
_0-0_0
  6
CONTINUOUS
 62
    7
 10
649.63320999999996
 20
330.66890999999998
 11
649.19689000000005
 21
332.06842999999998
  0
LINE
  8
_0-0_0
  6
CONTINUOUS
 62
    7
 10
649.19689000000005
 20
332.06842999999998
 11
648.44213000000002
 21
334.48066999999998
  0
LINE
  8
_0-0_0
  6
CONTINUOUS
 62
    7
 10
648.44213000000002
 20
334.48066999999998
 11
647.68046000000004
 21
336.89087000000001
  0
LINE
  8
_0-0_0
  6
CONTINUOUS
 62
    7
 10
647.68046000000004
 20
336.89087000000001
 11
646.90751999999998
 21
339.29775999999998
  0
LINE
  8
_0-0_0
  6
CONTINUOUS
 62
    7
 10
646.90751999999998
 20
339.29775999999998
 11
646.11892999999998
 21
341.70006000000001
  0
LINE
  8
_0-0_0
  6
CONTINUOUS
 62
    7
 10
646.11892999999998
 20
341.70006000000001
 11
645.31033000000002
 21
344.09647000000001
  0
LINE
  8
_0-0_0
  6
CONTINUOUS
 62
    7
 10
645.31033000000002
 20
344.09647000000001
 11
644.83045000000004
 21
345.48318999999998
  0
LINE
  8
_0-0_0
  6
CONTINUOUS
 62
    7
 10
644.83045000000004
 20
345.48318999999998
 11
644.25635
 21
347.10527999999999
  0
LINE
  8
_0-0_0
  6
CONTINUOUS
 62
    7
 10
644.25635
 20
347.10527999999999
 11
643.23400000000004
 21
349.89100000000002
  0
LINE
  8
_0-0_0
  6
CONTINUOUS
 62
    7
 10
643.23400000000004
 20
349.89100000000002
 11
642.16543000000001
 21
352.65915999999999
  0
LINE
  8
_0-0_0
  6
CONTINUOUS
 62
    7
 10
642.16543000000001
 20
352.65915999999999
 11
641.04481999999996
 21
355.40553999999997
  0
LINE
  8
_0-0_0
  6
CONTINUOUS
 62
    7
 10
641.04481999999996
 20
355.40553999999997
 11
639.86632999999995
 21
358.1259
  0
LINE
  8
_0-0_0
  6
CONTINUOUS
 62
    7
 10
639.86632999999995
 20
358.1259
 11
638.62411999999995
 21
360.81601999999998
  0
LINE
  8
_0-0_0
  6
CONTINUOUS
 62
    7
 10
638.62411999999995
 20
360.81601999999998
 11
637.87215000000003
 21
362.36077
  0
LINE
  8
_0-0_0
  6
CONTINUOUS
 62
    7
 10
637.87215000000003
 20
362.36077
 11
637.29990999999995
 21
363.49675000000002
  0
LINE
  8
_0-0_0
  6
CONTINUOUS
 62
    7
 10
637.29990999999995
 20
363.49675000000002
 11
636.28539000000001
 21
365.44123000000002
  0
LINE
  8
_0-0_0
  6
CONTINUOUS
 62
    7
 10
636.28539000000001
 20
365.44123000000002
 11
635.24113999999997
 21
367.37065000000001
  0
LINE
  8
_0-0_0
  6
CONTINUOUS
 62
    7
 10
635.24113999999997
 20
367.37065000000001
 11
634.17366000000004
 21
369.28829999999999
  0
LINE
  8
_0-0_0
  6
CONTINUOUS
 62
    7
 10
634.17366000000004
 20
369.28829999999999
 11
633.08942000000002
 21
371.19747999999998
  0
LINE
  8
_0-0_0
  6
CONTINUOUS
 62
    7
 10
633.08942000000002
 20
371.19747999999998
 11
631.99494000000004
 21
373.10145999999997
  0
LINE
  8
_0-0_0
  6
CONTINUOUS
 62
    7
 10
631.99494000000004
 20
373.10145999999997
 11
631.85595999999998
 21
373.34217999999998
  0
LINE
  8
_0-0_0
  6
CONTINUOUS
 62
    7
 10
618.29854999999998
 20
432.94153999999997
 11
618.51491999999996
 21
433.0992
  0
LINE
  8
_0-0_0
  6
CONTINUOUS
 62
    7
 10
582.56898999999999
 20
268.88846000000001
 11
582.56898999999999
 21
258.88846000000001
  0
LINE
  8
_0-0_0
  6
CONTINUOUS
 62
    7
 10
582.56898999999999
 20
148.88846000000001
 11
582.56898999999999
 21
138.88846000000001
  0
LINE
  8
_0-0_0
  6
CONTINUOUS
 62
    7
 10
582.56898999999999
 20
208.88846000000001
 11
582.56898999999999
 21
198.88846000000001
  0
LINE
  8
_0-0_0
  6
CONTINUOUS
 62
    7
 10
546.56898999999999
 20
268.88846000000001
 11
546.56898999999999
 21
258.88846000000001
  0
LINE
  8
_0-0_0
  6
CONTINUOUS
 62
    7
 10
546.56898999999999
 20
208.88846000000001
 11
546.56898999999999
 21
198.88846000000001
  0
LINE
  8
_0-0_0
  6
CONTINUOUS
 62
    7
 10
546.56898999999999
 20
148.88846000000001
 11
546.56898999999999
 21
138.88846000000001
  0
LINE
  8
_0-0_0
  6
CONTINUOUS
 62
    7
 10
579.56898999999999
 20
148.88846000000001
 11
582.56898999999999
 21
148.88846000000001
  0
LINE
  8
_0-0_0
  6
CONTINUOUS
 62
    7
 10
579.56898999999999
 20
138.88846000000001
 11
582.56898999999999
 21
138.88846000000001
  0
LINE
  8
_0-0_0
  6
CONTINUOUS
 62
    7
 10
579.56898999999999
 20
198.88846000000001
 11
582.56898999999999
 21
198.88846000000001
  0
LINE
  8
_0-0_0
  6
CONTINUOUS
 62
    7
 10
579.56898999999999
 20
208.88846000000001
 11
582.56898999999999
 21
208.88846000000001
  0
LINE
  8
_0-0_0
  6
CONTINUOUS
 62
    7
 10
579.56898999999999
 20
258.88846000000001
 11
582.56898999999999
 21
258.88846000000001
  0
LINE
  8
_0-0_0
  6
CONTINUOUS
 62
    7
 10
579.56898999999999
 20
268.88846000000001
 11
582.56898999999999
 21
268.88846000000001
  0
LINE
  8
_0-0_0
  6
CONTINUOUS
 62
    7
 10
579.56898999999999
 20
258.88846000000001
 11
579.56898999999999
 21
208.88846000000001
  0
LINE
  8
_0-0_0
  6
CONTINUOUS
 62
    7
 10
579.56898999999999
 20
198.88846000000001
 11
579.56898999999999
 21
148.88846000000001
  0
LINE
  8
_0-0_0
  6
CONTINUOUS
 62
    7
 10
549.56898999999999
 20
258.88846000000001
 11
549.56898999999999
 21
208.88846000000001
  0
LINE
  8
_0-0_0
  6
CONTINUOUS
 62
    7
 10
549.56898999999999
 20
198.88846000000001
 11
549.56898999999999
 21
148.88846000000001
  0
LINE
  8
_0-0_0
  6
CONTINUOUS
 62
    7
 10
546.56898999999999
 20
268.88846000000001
 11
549.56898999999999
 21
268.88846000000001
  0
LINE
  8
_0-0_0
  6
CONTINUOUS
 62
    7
 10
546.56898999999999
 20
258.88846000000001
 11
549.56898999999999
 21
258.88846000000001
  0
LINE
  8
_0-0_0
  6
CONTINUOUS
 62
    7
 10
546.56898999999999
 20
208.88846000000001
 11
549.56898999999999
 21
208.88846000000001
  0
LINE
  8
_0-0_0
  6
CONTINUOUS
 62
    7
 10
546.56898999999999
 20
198.88846000000001
 11
549.56898999999999
 21
198.88846000000001
  0
LINE
  8
_0-0_0
  6
CONTINUOUS
 62
    7
 10
546.56898999999999
 20
148.88846000000001
 11
549.56898999999999
 21
148.88846000000001
  0
LINE
  8
_0-0_0
  6
CONTINUOUS
 62
    7
 10
546.56898999999999
 20
138.88846000000001
 11
549.56898999999999
 21
138.88846000000001
  0
LINE
  8
_0-0_0
  6
CONTINUOUS
 62
    7
 10
579.56898999999999
 20
288.02346999999997
 11
549.56898999999999
 21
288.02346999999997
  0
LINE
  8
_0-0_0
  6
CONTINUOUS
 62
    7
 10
549.56898999999999
 20
288.02346999999997
 11
549.56898999999999
 21
268.88846000000001
  0
LINE
  8
_0-0_0
  6
CONTINUOUS
 62
    7
 10
579.56898999999999
 20
288.02346999999997
 11
579.56898999999999
 21
268.88846000000001
  0
LINE
  8
_0-0_0
  6
CONTINUOUS
 62
    7
 10
579.56898999999999
 20
118.88846000000001
 11
549.56898999999999
 21
101.56795
  0
LINE
  8
_0-0_0
  6
CONTINUOUS
 62
    7
 10
549.56898999999999
 20
138.88846000000001
 11
549.56898999999999
 21
101.56795
  0
LINE
  8
_0-0_0
  6
CONTINUOUS
 62
    7
 10
579.56898999999999
 20
138.88846000000001
 11
579.56898999999999
 21
118.88846000000001
  0
LINE
  8
_0-0_0
  6
CONTINUOUS
 62
    7
 10
589.45160999999996
 20
323.89704999999998
 11
588.44012999999995
 21
320.42299000000003
  0
LINE
  8
_0-0_0
  6
CONTINUOUS
 62
    7
 10
590.82655
 20
328.29723000000001
 11
589.45160999999996
 21
323.89704999999998
  0
LINE
  8
_0-0_0
  6
CONTINUOUS
 62
    7
 10
585.45468000000005
 20
321.09239000000002
 11
588.44012999999995
 21
320.42299000000003
  0
LINE
  8
_0-0_0
  6
CONTINUOUS
 62
    7
 10
588.45069999999998
 20
330.66890999999998
 11
591.39229
 21
330.00934999999998
  0
LINE
  8
_0-0_0
  6
CONTINUOUS
 62
    7
 10
559.40857000000005
 20
338.39589000000001
 11
559.05372999999997
 21
337.26029999999997
  0
LINE
  8
_0-0_0
  6
CONTINUOUS
 62
    7
 10
560.98531000000003
 20
343.16762999999997
 11
559.40857000000005
 21
338.39589000000001
  0
LINE
  8
_0-0_0
  6
CONTINUOUS
 62
    7
 10
561.93541000000005
 20
345.94322
 11
560.98531000000003
 21
343.16762999999997
  0
LINE
  8
_0-0_0
  6
CONTINUOUS
 62
    7
 10
562.62766999999997
 20
347.9271
 11
561.93541000000005
 21
345.94322
  0
LINE
  8
_0-0_0
  6
CONTINUOUS
 62
    7
 10
563.83704
 20
351.29964000000001
 11
562.62766999999997
 21
347.9271
  0
LINE
  8
_0-0_0
  6
CONTINUOUS
 62
    7
 10
565.16612999999995
 20
354.84325999999999
 11
563.83704
 21
351.29964000000001
  0
LINE
  8
_0-0_0
  6
CONTINUOUS
 62
    7
 10
569.66970000000003
 20
365.46582000000001
 11
569.64661999999998
 21
365.41523999999998
  0
LINE
  8
_0-0_0
  6
CONTINUOUS
 62
    7
 10
596.33977000000004
 20
351.39402999999999
 11
596.34258999999997
 21
351.40089
  0
LINE
  8
_0-0_0
  6
CONTINUOUS
 62
    7
 10
585.26779999999997
 20
320.25894
 11
585.52047000000005
 21
321.07763999999997
  0
LINE
  8
_0-0_0
  6
CONTINUOUS
 62
    7
 10
590.82655
 20
328.29723000000001
 11
591.37837000000002
 21
330.01247000000001
  0
LINE
  8
_0-0_0
  6
CONTINUOUS
 62
    7
 10
649.56898999999999
 20
118.88846000000001
 11
619.56898999999999
 21
118.88846000000001
  0
LINE
  8
_0-0_0
  6
CONTINUOUS
 62
    7
 10
592.56898999999999
 20
268.88846000000001
 11
592.56898999999999
 21
258.88846000000001
  0
LINE
  8
_0-0_0
  6
CONTINUOUS
 62
    7
 10
592.56898999999999
 20
208.88846000000001
 11
592.56898999999999
 21
198.88846000000001
  0
LINE
  8
_0-0_0
  6
CONTINUOUS
 62
    7
 10
592.56898999999999
 20
148.88846000000001
 11
592.56898999999999
 21
138.88846000000001
  0
LINE
  8
_0-0_0
  6
CONTINUOUS
 62
    7
 10
589.56898999999999
 20
288.02346999999997
 11
589.56898999999999
 21
268.88846000000001
  0
LINE
  8
_0-0_0
  6
CONTINUOUS
 62
    7
 10
589.56898999999999
 20
258.88846000000001
 11
589.56898999999999
 21
208.88846000000001
  0
LINE
  8
_0-0_0
  6
CONTINUOUS
 62
    7
 10
589.56898999999999
 20
198.88846000000001
 11
589.56898999999999
 21
148.88846000000001
  0
LINE
  8
_0-0_0
  6
CONTINUOUS
 62
    7
 10
589.56898999999999
 20
268.88846000000001
 11
592.56898999999999
 21
268.88846000000001
  0
LINE
  8
_0-0_0
  6
CONTINUOUS
 62
    7
 10
589.56898999999999
 20
258.88846000000001
 11
592.56898999999999
 21
258.88846000000001
  0
LINE
  8
_0-0_0
  6
CONTINUOUS
 62
    7
 10
589.56898999999999
 20
208.88846000000001
 11
592.56898999999999
 21
208.88846000000001
  0
LINE
  8
_0-0_0
  6
CONTINUOUS
 62
    7
 10
589.56898999999999
 20
198.88846000000001
 11
592.56898999999999
 21
198.88846000000001
  0
LINE
  8
_0-0_0
  6
CONTINUOUS
 62
    7
 10
589.56898999999999
 20
148.88846000000001
 11
592.56898999999999
 21
148.88846000000001
  0
LINE
  8
_0-0_0
  6
CONTINUOUS
 62
    7
 10
589.56898999999999
 20
138.88846000000001
 11
592.56898999999999
 21
138.88846000000001
  0
LINE
  8
_0-0_0
  6
CONTINUOUS
 62
    7
 10
589.56898999999999
 20
138.88846000000001
 11
589.56898999999999
 21
118.88846000000001
  0
LINE
  8
_0-0_0
  6
CONTINUOUS
 62
    7
 10
601.19761000000005
 20
327.81079999999997
 11
600.34715000000006
 21
325.23703
  0
LINE
  8
_0-0_0
  6
CONTINUOUS
 62
    7
 10
600.34715000000006
 20
325.23703
 11
599.02562999999998
 21
321.00779
  0
LINE
  8
_0-0_0
  6
CONTINUOUS
 62
    7
 10
599.02562999999998
 20
321.00779
 11
598.21709999999996
 21
318.23079999999999
  0
LINE
  8
_0-0_0
  6
CONTINUOUS
 62
    7
 10
598.25600999999995
 20
328.47037
 11
601.19761000000005
 21
327.81079999999997
  0
LINE
  8
_0-0_0
  6
CONTINUOUS
 62
    7
 10
595.28400999999997
 20
318.88846000000001
 11
598.21709999999996
 21
318.23079999999999
  0
LINE
  8
_0-0_0
  6
CONTINUOUS
 62
    7
 10
589.56898999999999
 20
118.88846000000001
 11
619.56898999999999
 21
118.88846000000001
  0
LINE
  8
_0-0_0
  6
CONTINUOUS
 62
    7
 10
589.88350000000003
 20
291.63303000000002
 11
589.56898999999999
 21
288.02346999999997
  0
LINE
  8
_0-0_0
  6
CONTINUOUS
 62
    7
 10
591.17033000000004
 20
300.99002000000002
 11
589.88350000000003
 21
291.63303000000002
  0
LINE
  8
_0-0_0
  6
CONTINUOUS
 62
    7
 10
592.16980000000001
 20
306.37666999999999
 11
591.17033000000004
 21
300.99002000000002
  0
LINE
  8
_0-0_0
  6
CONTINUOUS
 62
    7
 10
592.71229000000005
 20
308.90638000000001
 11
592.16980000000001
 21
306.37666999999999
  0
LINE
  8
_0-0_0
  6
CONTINUOUS
 62
    7
 10
593.74900000000002
 20
313.25058999999999
 11
592.71229000000005
 21
308.90638000000001
  0
LINE
  8
_0-0_0
  6
CONTINUOUS
 62
    7
 10
594.90107
 20
317.57319999999999
 11
593.74900000000002
 21
313.25058999999999
  0
LINE
  8
_0-0_0
  6
CONTINUOUS
 62
    7
 10
595.28400999999997
 20
318.88846000000001
 11
594.90107
 21
317.57319999999999
  0
LINE
  8
_0-0_0
  6
CONTINUOUS
 62
    7
 10
619.56898999999999
 20
368.88846000000001
 11
619.04195000000004
 21
368.28958
  0
LINE
  8
_0-0_0
  6
CONTINUOUS
 62
    7
 10
619.04195000000004
 20
368.28958
 11
618.13557000000003
 21
367.25522999999998
  0
LINE
  8
_0-0_0
  6
CONTINUOUS
 62
    7
 10
618.13557000000003
 20
367.25522999999998
 11
617.23554000000001
 21
366.21586000000002
  0
LINE
  8
_0-0_0
  6
CONTINUOUS
 62
    7
 10
617.23554000000001
 20
366.21586000000002
 11
616.34590000000003
 21
365.16831000000002
  0
LINE
  8
_0-0_0
  6
CONTINUOUS
 62
    7
 10
616.34590000000003
 20
365.16831000000002
 11
615.47068000000002
 21
364.10937999999999
  0
LINE
  8
_0-0_0
  6
CONTINUOUS
 62
    7
 10
615.47068000000002
 20
364.10937999999999
 11
614.61389999999994
 21
363.03591999999998
  0
LINE
  8
_0-0_0
  6
CONTINUOUS
 62
    7
 10
614.61389999999994
 20
363.03591999999998
 11
614.12701000000004
 21
362.40539999999999
  0
LINE
  8
_0-0_0
  6
CONTINUOUS
 62
    7
 10
614.12701000000004
 20
362.40539999999999
 11
613.35275000000001
 21
361.36633999999998
  0
LINE
  8
_0-0_0
  6
CONTINUOUS
 62
    7
 10
613.35275000000001
 20
361.36633999999998
 11
612.06821000000002
 21
359.53676999999999
  0
LINE
  8
_0-0_0
  6
CONTINUOUS
 62
    7
 10
612.06821000000002
 20
359.53676999999999
 11
610.84529999999995
 21
357.66320999999999
  0
LINE
  8
_0-0_0
  6
CONTINUOUS
 62
    7
 10
610.84529999999995
 20
357.66320999999999
 11
609.68150000000003
 21
355.75053000000003
  0
LINE
  8
_0-0_0
  6
CONTINUOUS
 62
    7
 10
609.68150000000003
 20
355.75053000000003
 11
608.57429000000002
 21
353.80363999999997
  0
LINE
  8
_0-0_0
  6
CONTINUOUS
 62
    7
 10
608.57429000000002
 20
353.80363999999997
 11
607.52116000000001
 21
351.82738999999998
  0
LINE
  8
_0-0_0
  6
CONTINUOUS
 62
    7
 10
607.52116000000001
 20
351.82738999999998
 11
606.93412999999998
 21
350.66966000000002
  0
LINE
  8
_0-0_0
  6
CONTINUOUS
 62
    7
 10
606.93412999999998
 20
350.66966000000002
 11
606.14350000000002
 21
349.04325
  0
LINE
  8
_0-0_0
  6
CONTINUOUS
 62
    7
 10
606.14350000000002
 20
349.04325
 11
604.85037
 21
346.20888000000002
  0
LINE
  8
_0-0_0
  6
CONTINUOUS
 62
    7
 10
604.85037
 20
346.20888000000002
 11
603.63543000000004
 21
343.34079000000003
  0
LINE
  8
_0-0_0
  6
CONTINUOUS
 62
    7
 10
603.63543000000004
 20
343.34079000000003
 11
602.48648000000003
 21
340.44423
  0
LINE
  8
_0-0_0
  6
CONTINUOUS
 62
    7
 10
602.48648000000003
 20
340.44423
 11
601.39138000000003
 21
337.52447000000001
  0
LINE
  8
_0-0_0
  6
CONTINUOUS
 62
    7
 10
601.39138000000003
 20
337.52447000000001
 11
600.33794999999998
 21
334.58676000000003
  0
LINE
  8
_0-0_0
  6
CONTINUOUS
 62
    7
 10
600.33794999999998
 20
334.58676000000003
 11
599.74125000000004
 21
332.87675000000002
  0
LINE
  8
_0-0_0
  6
CONTINUOUS
 62
    7
 10
599.74125000000004
 20
332.87675000000002
 11
598.89863000000003
 21
330.41514000000001
  0
LINE
  8
_0-0_0
  6
CONTINUOUS
 62
    7
 10
598.89863000000003
 20
330.41514000000001
 11
598.25600999999995
 21
328.47037
  0
LINE
  8
_0-0_0
  6
CONTINUOUS
 62
    7
 10
579.93011000000001
 20
292.87842000000001
 11
550.37540999999999
 21
295.27560999999997
  0
LINE
  8
_0-0_0
  6
CONTINUOUS
 62
    7
 10
556.36798999999996
 20
328.31614999999999
 11
554.96321
 21
323.04538000000002
  0
LINE
  8
_0-0_0
  6
CONTINUOUS
 62
    7
 10
554.96321
 20
323.04538000000002
 11
553.69799
 21
317.74358999999998
  0
LINE
  8
_0-0_0
  6
CONTINUOUS
 62
    7
 10
553.69799
 20
317.74358999999998
 11
552.94245999999998
 21
314.22041000000002
  0
LINE
  8
_0-0_0
  6
CONTINUOUS
 62
    7
 10
552.94245999999998
 20
314.22041000000002
 11
551.67084
 21
307.36703
  0
LINE
  8
_0-0_0
  6
CONTINUOUS
 62
    7
 10
551.67084
 20
307.36703
 11
550.12088000000006
 21
296.09676000000002
  0
LINE
  8
_0-0_0
  6
CONTINUOUS
 62
    7
 10
585.26779999999997
 20
320.25894
 11
584.05255
 21
315.69929000000002
  0
LINE
  8
_0-0_0
  6
CONTINUOUS
 62
    7
 10
584.05255
 20
315.69929000000002
 11
582.95871
 21
311.11568
  0
LINE
  8
_0-0_0
  6
CONTINUOUS
 62
    7
 10
582.95871
 20
311.11568
 11
582.36297000000002
 21
308.33760999999998
  0
LINE
  8
_0-0_0
  6
CONTINUOUS
 62
    7
 10
582.36297000000002
 20
308.33760999999998
 11
581.29546000000005
 21
302.58427
  0
LINE
  8
_0-0_0
  6
CONTINUOUS
 62
    7
 10
581.29546000000005
 20
302.58427
 11
579.96007999999995
 21
292.87430000000001
  0
LINE
  8
_0-0_0
  6
CONTINUOUS
 62
    7
 10
556.19146000000001
 20
327.65377999999998
 11
556.45487000000003
 21
328.56040000000002
  0
LINE
  8
_0-0_0
  6
CONTINUOUS
 62
    7
 10
556.45487000000003
 20
328.56040000000002
 11
556.90998000000002
 21
330.12320999999997
  0
LINE
  8
_0-0_0
  6
CONTINUOUS
 62
    7
 10
556.90998000000002
 20
330.12320999999997
 11
557.36774000000003
 21
331.68509
  0
LINE
  8
_0-0_0
  6
CONTINUOUS
 62
    7
 10
557.36774000000003
 20
331.68509
 11
557.82980999999995
 21
333.24549000000002
  0
LINE
  8
_0-0_0
  6
CONTINUOUS
 62
    7
 10
557.82980999999995
 20
333.24549000000002
 11
558.29789000000005
 21
334.80380000000002
  0
LINE
  8
_0-0_0
  6
CONTINUOUS
 62
    7
 10
558.29789000000005
 20
334.80380000000002
 11
558.77363000000003
 21
336.35946000000001
  0
LINE
  8
_0-0_0
  6
CONTINUOUS
 62
    7
 10
558.77363000000003
 20
336.35946000000001
 11
559.05372999999997
 21
337.26029999999997
  0
LINE
  8
_0-0_0
  6
CONTINUOUS
 62
    7
 10
559.05372999999997
 20
337.26029999999997
 11
559.69281000000001
 21
339.27219000000002
  0
LINE
  8
_0-0_0
  6
CONTINUOUS
 62
    7
 10
559.69281000000001
 20
339.27219000000002
 11
560.83097999999995
 21
342.72872000000001
  0
LINE
  8
_0-0_0
  6
CONTINUOUS
 62
    7
 10
560.83097999999995
 20
342.72872000000001
 11
562.00832000000003
 21
346.17261999999999
  0
LINE
  8
_0-0_0
  6
CONTINUOUS
 62
    7
 10
562.00832000000003
 20
346.17261999999999
 11
563.21691999999996
 21
349.60719
  0
LINE
  8
_0-0_0
  6
CONTINUOUS
 62
    7
 10
563.21691999999996
 20
349.60719
 11
564.44884999999999
 21
353.03577999999999
  0
LINE
  8
_0-0_0
  6
CONTINUOUS
 62
    7
 10
564.44884999999999
 20
353.03577999999999
 11
565.69620999999995
 21
356.46168999999998
  0
LINE
  8
_0-0_0
  6
CONTINUOUS
 62
    7
 10
565.69620999999995
 20
356.46168999999998
 11
566.42363
 21
358.44880999999998
  0
LINE
  8
_0-0_0
  6
CONTINUOUS
 62
    7
 10
566.42363
 20
358.44880999999998
 11
567.39130999999998
 21
361.08553000000001
  0
LINE
  8
_0-0_0
  6
CONTINUOUS
 62
    7
 10
567.39130999999998
 20
361.08553000000001
 11
569.07880999999998
 21
365.62655999999998
  0
LINE
  8
_0-0_0
  6
CONTINUOUS
 62
    7
 10
569.07880999999998
 20
365.62655999999998
 11
570.81316000000004
 21
370.14812999999998
  0
LINE
  8
_0-0_0
  6
CONTINUOUS
 62
    7
 10
570.81316000000004
 20
370.14812999999998
 11
572.62076999999999
 21
374.63506000000001
  0
LINE
  8
_0-0_0
  6
CONTINUOUS
 62
    7
 10
572.62076999999999
 20
374.63506000000001
 11
574.52802999999994
 21
379.07216
  0
LINE
  8
_0-0_0
  6
CONTINUOUS
 62
    7
 10
574.52802999999994
 20
379.07216
 11
576.56134999999995
 21
383.44423
  0
LINE
  8
_0-0_0
  6
CONTINUOUS
 62
    7
 10
576.56134999999995
 20
383.44423
 11
577.80884000000003
 21
385.94425000000001
  0
LINE
  8
_0-0_0
  6
CONTINUOUS
 62
    7
 10
577.80884000000003
 20
385.94425000000001
 11
579.32176000000004
 21
388.80306000000002
  0
LINE
  8
_0-0_0
  6
CONTINUOUS
 62
    7
 10
579.32176000000004
 20
388.80306000000002
 11
582.08720000000005
 21
393.64875000000001
  0
LINE
  8
_0-0_0
  6
CONTINUOUS
 62
    7
 10
582.08720000000005
 20
393.64875000000001
 11
585.01990000000001
 21
398.40568000000002
  0
LINE
  8
_0-0_0
  6
CONTINUOUS
 62
    7
 10
585.01990000000001
 20
398.40568000000002
 11
588.08334000000002
 21
403.09323000000001
  0
LINE
  8
_0-0_0
  6
CONTINUOUS
 62
    7
 10
588.08334000000002
 20
403.09323000000001
 11
591.24100999999996
 21
407.73077000000001
  0
LINE
  8
_0-0_0
  6
CONTINUOUS
 62
    7
 10
591.24100999999996
 20
407.73077000000001
 11
592.14666999999997
 21
409.02838000000003
  0
LINE
  8
_0-0_0
  6
CONTINUOUS
 62
    7
 10
606.22794999999996
 20
373.34217999999998
 11
592.14666999999997
 21
409.02838000000003
  0
LINE
  8
_0-0_0
  6
CONTINUOUS
 62
    7
 10
606.56069000000002
 20
373.91849999999999
 11
606.72591
 21
374.20468
  0
LINE
  8
_0-0_0
  6
CONTINUOUS
 62
    7
 10
588.45069999999998
 20
330.66890999999998
 11
588.88702000000001
 21
332.06842999999998
  0
LINE
  8
_0-0_0
  6
CONTINUOUS
 62
    7
 10
588.88702000000001
 20
332.06842999999998
 11
589.64178000000004
 21
334.48066999999998
  0
LINE
  8
_0-0_0
  6
CONTINUOUS
 62
    7
 10
589.64178000000004
 20
334.48066999999998
 11
590.40344000000005
 21
336.89087000000001
  0
LINE
  8
_0-0_0
  6
CONTINUOUS
 62
    7
 10
590.40344000000005
 20
336.89087000000001
 11
591.17638999999997
 21
339.29775999999998
  0
LINE
  8
_0-0_0
  6
CONTINUOUS
 62
    7
 10
591.17638999999997
 20
339.29775999999998
 11
591.96496999999999
 21
341.70006000000001
  0
LINE
  8
_0-0_0
  6
CONTINUOUS
 62
    7
 10
591.96496999999999
 20
341.70006000000001
 11
592.77358000000004
 21
344.09647000000001
  0
LINE
  8
_0-0_0
  6
CONTINUOUS
 62
    7
 10
592.77358000000004
 20
344.09647000000001
 11
593.25346000000002
 21
345.48318999999998
  0
LINE
  8
_0-0_0
  6
CONTINUOUS
 62
    7
 10
593.25346000000002
 20
345.48318999999998
 11
593.82754999999997
 21
347.10527999999999
  0
LINE
  8
_0-0_0
  6
CONTINUOUS
 62
    7
 10
593.82754999999997
 20
347.10527999999999
 11
594.84991000000002
 21
349.89100000000002
  0
LINE
  8
_0-0_0
  6
CONTINUOUS
 62
    7
 10
594.84991000000002
 20
349.89100000000002
 11
595.91848000000005
 21
352.65915999999999
  0
LINE
  8
_0-0_0
  6
CONTINUOUS
 62
    7
 10
595.91848000000005
 20
352.65915999999999
 11
597.03908999999999
 21
355.40553999999997
  0
LINE
  8
_0-0_0
  6
CONTINUOUS
 62
    7
 10
597.03908999999999
 20
355.40553999999997
 11
598.21758
 21
358.1259
  0
LINE
  8
_0-0_0
  6
CONTINUOUS
 62
    7
 10
598.21758
 20
358.1259
 11
599.45979
 21
360.81601999999998
  0
LINE
  8
_0-0_0
  6
CONTINUOUS
 62
    7
 10
599.45979
 20
360.81601999999998
 11
600.21176000000003
 21
362.36077
  0
LINE
  8
_0-0_0
  6
CONTINUOUS
 62
    7
 10
600.21176000000003
 20
362.36077
 11
600.78399999999999
 21
363.49675000000002
  0
LINE
  8
_0-0_0
  6
CONTINUOUS
 62
    7
 10
600.78399999999999
 20
363.49675000000002
 11
601.79852000000005
 21
365.44123000000002
  0
LINE
  8
_0-0_0
  6
CONTINUOUS
 62
    7
 10
601.79852000000005
 20
365.44123000000002
 11
602.84276999999997
 21
367.37065000000001
  0
LINE
  8
_0-0_0
  6
CONTINUOUS
 62
    7
 10
602.84276999999997
 20
367.37065000000001
 11
603.91025000000002
 21
369.28829999999999
  0
LINE
  8
_0-0_0
  6
CONTINUOUS
 62
    7
 10
603.91025000000002
 20
369.28829999999999
 11
604.99447999999995
 21
371.19747999999998
  0
LINE
  8
_0-0_0
  6
CONTINUOUS
 62
    7
 10
604.99447999999995
 20
371.19747999999998
 11
606.08897000000002
 21
373.10145999999997
  0
LINE
  8
_0-0_0
  6
CONTINUOUS
 62
    7
 10
606.08897000000002
 20
373.10145999999997
 11
606.22794999999996
 21
373.34217999999998
  0
LINE
  8
_0-0_0
  6
DASHED1
 62
    7
 10
-179.59323000000001
 20
-281.9092
 11
-73.752483000000012
 21
-281.9092
  0
ENDSEC
  0
EOF
