  0
SECTION
  2
HEADER
  9
$ACADVER
  1
AC1009
  9
$INSBASE
 10
0.0
 20
0.0
 30
0.0
  9
$EXTMIN
 10
-278.0460942141687
 20
-302.40976355492211
 30
-0.0015258207003583
  9
$EXTMAX
 10
704.93929879127245
 20
433.12164697979802
 30
0.0000000349246037
  9
$LIMMIN
 10
0.0
 20
0.0
  9
$LIMMAX
 10
210.25
 20
148.5
  9
$ORTHOMODE
 70
     0
  9
$REGENMODE
 70
     1
  9
$FILLMODE
 70
     1
  9
$QTEXTMODE
 70
     0
  9
$MIRRTEXT
 70
     1
  9
$DRAGMODE
 70
     2
  9
$LTSCALE
 40
0.25
  9
$OSMODE
 70
   109
  9
$ATTMODE
 70
     1
  9
$TEXTSIZE
 40
0.2
  9
$TRACEWID
 40
0.05
  9
$TEXTSTYLE
  7
STANDARD
  9
$CLAYER
  8
0
  9
$CELTYPE
  6
CONTINUOUS
  9
$CECOLOR
 62
   256
  9
$DIMSCALE
 40
1.0
  9
$DIMASZ
 40
0.18
  9
$DIMEXO
 40
0.0625
  9
$DIMDLI
 40
0.38
  9
$DIMRND
 40
0.0
  9
$DIMDLE
 40
0.0
  9
$DIMEXE
 40
0.18
  9
$DIMTP
 40
0.0
  9
$DIMTM
 40
0.0
  9
$DIMTXT
 40
0.18
  9
$DIMCEN
 40
0.09
  9
$DIMTSZ
 40
0.0
  9
$DIMTOL
 70
     0
  9
$DIMLIM
 70
     0
  9
$DIMTIH
 70
     1
  9
$DIMTOH
 70
     1
  9
$DIMSE1
 70
     0
  9
$DIMSE2
 70
     0
  9
$DIMTAD
 70
     0
  9
$DIMZIN
 70
     0
  9
$DIMBLK
  1

  9
$DIMASO
 70
     1
  9
$DIMSHO
 70
     1
  9
$DIMPOST
  1

  9
$DIMAPOST
  1

  9
$DIMALT
 70
     0
  9
$DIMALTD
 70
     2
  9
$DIMALTF
 40
25.399999999999999
  9
$DIMLFAC
 40
1.0
  9
$DIMTOFL
 70
     0
  9
$DIMTVP
 40
0.0
  9
$DIMTIX
 70
     0
  9
$DIMSOXD
 70
     0
  9
$DIMSAH
 70
     0
  9
$DIMBLK1
  1

  9
$DIMBLK2
  1

  9
$DIMSTYLE
  2
STANDARD
  9
$DIMCLRD
 70
     0
  9
$DIMCLRE
 70
     0
  9
$DIMCLRT
 70
     0
  9
$DIMTFAC
 40
1.0
  9
$DIMGAP
 40
0.09
  9
$LUNITS
 70
     2
  9
$LUPREC
 70
     4
  9
$SKETCHINC
 40
0.1
  9
$FILLETRAD
 40
0.0
  9
$AUNITS
 70
     0
  9
$AUPREC
 70
     0
  9
$MENU
  1
.
  9
$ELEVATION
 40
0.0
  9
$PELEVATION
 40
0.0
  9
$THICKNESS
 40
0.0
  9
$LIMCHECK
 70
     0
  9
$BLIPMODE
 70
     0
  9
$CHAMFERA
 40
0.0
  9
$CHAMFERB
 40
0.0
  9
$SKPOLY
 70
     0
  9
$TDCREATE
 40
2453631.2273987262
  9
$TDUPDATE
 40
2453631.228029687
  9
$TDINDWG
 40
0.0006320486
  9
$TDUSRTIMER
 40
0.0006320486
  9
$USRTIMER
 70
     1
  9
$ANGBASE
 50
0.0
  9
$ANGDIR
 70
     0
  9
$PDMODE
 70
     0
  9
$PDSIZE
 40
0.0
  9
$PLINEWID
 40
0.0
  9
$COORDS
 70
     2
  9
$SPLFRAME
 70
     0
  9
$SPLINETYPE
 70
     6
  9
$SPLINESEGS
 70
     8
  9
$ATTDIA
 70
     0
  9
$ATTREQ
 70
     1
  9
$HANDLING
 70
-16383
  9
$HANDSEED
  5
884
  9
$SURFTAB1
 70
     6
  9
$SURFTAB2
 70
     6
  9
$SURFTYPE
 70
     6
  9
$SURFU
 70
     6
  9
$SURFV
 70
     6
  9
$UCSNAME
  2

  9
$UCSORG
 10
0.0
 20
0.0
 30
0.0
  9
$UCSXDIR
 10
1.0
 20
0.0
 30
0.0
  9
$UCSYDIR
 10
0.0
 20
1.0
 30
0.0
  9
$PUCSNAME
  2

  9
$PUCSORG
 10
0.0
 20
0.0
 30
0.0
  9
$PUCSXDIR
 10
1.0
 20
0.0
 30
0.0
  9
$PUCSYDIR
 10
0.0
 20
1.0
 30
0.0
  9
$USERI1
 70
     0
  9
$USERI2
 70
     0
  9
$USERI3
 70
     0
  9
$USERI4
 70
     0
  9
$USERI5
 70
     0
  9
$USERR1
 40
0.0
  9
$USERR2
 40
0.0
  9
$USERR3
 40
0.0
  9
$USERR4
 40
0.0
  9
$USERR5
 40
0.0
  9
$WORLDVIEW
 70
     1
  9
$SHADEDGE
 70
     3
  9
$SHADEDIF
 70
    70
  9
$TILEMODE
 70
     1
  9
$MAXACTVP
 70
    64
  9
$PLIMCHECK
 70
     0
  9
$PEXTMIN
 10
1.0000000000000000E+020
 20
1.0000000000000000E+020
 30
1.0000000000000000E+020
  9
$PEXTMAX
 10
-1.0000000000000000E+020
 20
-1.0000000000000000E+020
 30
-1.0000000000000000E+020
  9
$PLIMMIN
 10
0.0
 20
0.0
  9
$PLIMMAX
 10
12.0
 20
9.0
  9
$UNITMODE
 70
     0
  9
$VISRETAIN
 70
     1
  9
$PLINEGEN
 70
     0
  9
$PSLTSCALE
 70
     1
  0
ENDSEC
  0
SECTION
  2
TABLES
  0
TABLE
  2
VPORT
 70
     2
  0
VPORT
  2
*ACTIVE
 70
     0
 10
0.0
 20
0.0
 11
1.0
 21
1.0
 12
213.44660228855179
 22
65.355941712437925
 13
0.0
 23
0.0
 14
1.0
 24
1.0
 15
0.0
 25
0.0
 16
0.0
 26
0.0
 36
1.0
 17
0.0
 27
0.0
 37
0.0
 40
741.09659144671036
 41
1.4457070707070701
 42
50.0
 43
0.0
 44
0.0
 50
0.0
 51
0.0
 71
     0
 72
   100
 73
     1
 74
     1
 75
     0
 76
     0
 77
     0
 78
     0
  0
ENDTAB
  0
TABLE
  2
LTYPE
 70
    20
  0
LTYPE
  2
CONTINUOUS
 70
     0
  3
実線
 72
    65
 73
     0
 40
0.0
  0
LTYPE
  2
DASHED1
 70
     0
  3
--  --  --  --  --  --  --  --  
 72
    65
 73
     2
 40
2.5
 49
1.25
 49
-1.25
  0
LTYPE
  2
DASHED2
 70
     0
  3
----    ----    ----    ----    
 72
    65
 73
     2
 40
5.0
 49
2.5
 49
-2.5
  0
LTYPE
  2
DASHED3
 70
     0
  3
------  ------  ------  ------  
 72
    65
 73
     2
 40
5.0
 49
3.75
 49
-1.25
  0
LTYPE
  2
CENTER1
 70
     0
  3
----- - ----- - ----- - ----- - 
 72
    65
 73
     4
 40
10.0
 49
6.25
 49
-1.25
 49
1.25
 49
-1.25
  0
LTYPE
  2
CENTER2
 70
     0
  3
----------  --  ----------  --  
 72
    65
 73
     4
 40
20.0
 49
12.5
 49
-2.5
 49
2.5
 49
-2.5
  0
LTYPE
  2
PHANTOM1
 70
     0
  3
--- - - --- - - --- - - --- - - 
 72
    65
 73
     6
 40
10.0
 49
3.25
 49
-1.25
 49
1.25
 49
-1.25
 49
1.25
 49
-1.25
  0
LTYPE
  2
PHANTOM2
 70
     0
  3
--------  -  -  --------  -  -  
 72
    65
 73
     6
 40
20.0
 49
10.0
 49
-2.5
 49
1.25
 49
-2.5
 49
1.25
 49
-2.5
  0
LTYPE
  2
DOT
 70
     0
  3
-   -   -   -   -   -   -   -   
 72
    65
 73
     2
 40
2.5
 49
0.625
 49
-1.875
  0
LTYPE
  2
DUMMY
 70
     0
  3
ダミー
 72
    65
 73
     0
 40
0.0
  0
LTYPE
  2
RAND1
 70
     0
  3
----- - ----- - ----- - ----- - 
 72
    65
 73
     4
 40
10.0
 49
6.25
 49
-1.25
 49
1.25
 49
-1.25
  0
LTYPE
  2
RAND2
 70
     0
  3
----------  --  ----------  --  
 72
    65
 73
     4
 40
20.0
 49
12.5
 49
-2.5
 49
2.5
 49
-2.5
  0
LTYPE
  2
RAND3
 70
     0
  3
--- - - --- - - --- - - --- - - 
 72
    65
 73
     6
 40
10.0
 49
3.25
 49
-1.25
 49
1.25
 49
-1.25
 49
1.25
 49
-1.25
  0
LTYPE
  2
RAND4
 70
     0
  3
--------  -  -  --------  -  -  
 72
    65
 73
     6
 40
20.0
 49
10.0
 49
-2.5
 49
1.25
 49
-2.5
 49
1.25
 49
-2.5
  0
LTYPE
  2
RAND5
 70
     0
  3
----- - ----- - ----- - ----- - 
 72
    65
 73
     4
 40
10.0
 49
6.25
 49
-1.25
 49
1.25
 49
-1.25
  0
LTYPE
  2
LONG1
 70
     0
  3
----------  --  ----------  --  
 72
    65
 73
     4
 40
20.0
 49
12.5
 49
-2.5
 49
2.5
 49
-2.5
  0
LTYPE
  2
LONG2
 70
     0
  3
--- - - --- - - --- - - --- - - 
 72
    65
 73
     6
 40
10.0
 49
3.25
 49
-1.25
 49
1.25
 49
-1.25
 49
1.25
 49
-1.25
  0
LTYPE
  2
LONG3
 70
     0
  3
--------  -  -  --------  -  -  
 72
    65
 73
     6
 40
20.0
 49
10.0
 49
-2.5
 49
1.25
 49
-2.5
 49
1.25
 49
-2.5
  0
LTYPE
  2
LONG4
 70
     0
  3
----- - ----- - ----- - ----- - 
 72
    65
 73
     4
 40
10.0
 49
6.25
 49
-1.25
 49
1.25
 49
-1.25
  0
LTYPE
  2
LONG5
 70
     0
  3
----------  --  ----------  --  
 72
    65
 73
     4
 40
20.0
 49
12.5
 49
-2.5
 49
2.5
 49
-2.5
  0
ENDTAB
  0
TABLE
  2
LAYER
 70
     4
  0
LAYER
  2
0
 70
     0
 62
     7
  6
CONTINUOUS
  0
LAYER
  2
_0-0_0
 70
     0
 62
     7
  6
CONTINUOUS
  0
LAYER
  2
_0-1_レイヤ___1
 70
     0
 62
     7
  6
CONTINUOUS
  0
LAYER
  2
ADD_LINE
 70
     0
 62
     7
  6
CONTINUOUS
  0
ENDTAB
  0
TABLE
  2
STYLE
 70
     2
  0
STYLE
  2
STANDARD
 70
     0
 40
0.0
 41
1.0
 50
0.0
 71
     0
 42
0.2
  3
txt
  4
bigfont.shx
  0
STYLE
  2
TATEGAKI
 70
     4
 40
0.0
 41
1.0
 50
0.0
 71
     0
 42
1.0
  3
txt
  4
bigfont.shx
  0
ENDTAB
  0
TABLE
  2
VIEW
 70
     0
  0
ENDTAB
  0
TABLE
  2
UCS
 70
     0
  0
ENDTAB
  0
TABLE
  2
APPID
 70
     1
  0
APPID
  2
ACAD
 70
     0
  0
ENDTAB
  0
TABLE
  2
DIMSTYLE
 70
     1
  0
DIMSTYLE
  2
STANDARD
 70
     0
  3

  4

  5

  6

  7

 40
1.0
 41
0.18
 42
0.0625
 43
0.38
 44
0.18
 45
0.0
 46
0.0
 47
0.0
 48
0.0
140
0.18
141
0.09
142
0.0
143
25.399999999999999
144
1.0
145
0.0
146
1.0
147
0.09
 71
     0
 72
     0
 73
     1
 74
     1
 75
     0
 76
     0
 77
     0
 78
     0
170
     0
171
     2
172
     0
173
     0
174
     0
175
     0
176
     0
177
     0
178
     0
  0
ENDTAB
  0
ENDSEC
  0
SECTION
  2
BLOCKS
  0
BLOCK
  8
0
  2
$MODEL_SPACE
 70
     0
 10
0.0
 20
0.0
 30
0.0
  3
$MODEL_SPACE
  1

  0
ENDBLK
  5
20
  8
0
  0
BLOCK
 67
     1
  8
0
  2
$PAPER_SPACE
 70
     0
 10
0.0
 20
0.0
 30
0.0
  3
$PAPER_SPACE
  1

  0
ENDBLK
  5
1C
 67
     1
  8
0
  0
ENDSEC
  0
SECTION
  2
ENTITIES
  0
LINE
  5
3C
  8
_0-1_レイヤ___1
  6
CONTINUOUS
 62
     7
 10
305.1088299999999
 20
-155.13341
 30
0.0
 11
305.1088299999999
 21
-195.13855000000001
 31
0.0
  0
LINE
  5
3D
  8
_0-1_レイヤ___1
  6
CONTINUOUS
 62
     7
 10
175.14501000000001
 20
-155.13341
 30
0.0
 11
305.1088299999999
 21
-155.13341
 31
0.0
  0
LINE
  5
3E
  8
_0-1_レイヤ___1
  6
CONTINUOUS
 62
     7
 10
175.14501000000001
 20
-195.13855000000001
 30
0.0
 11
175.14501000000001
 21
-155.13341
 31
0.0
  0
LINE
  5
3F
  8
_0-1_レイヤ___1
  6
CONTINUOUS
 62
     7
 10
305.1088299999999
 20
-195.13855000000001
 30
0.0
 11
175.14501000000001
 21
-195.13855000000001
 31
0.0
  0
LINE
  5
40
  8
_0-1_レイヤ___1
  6
CONTINUOUS
 62
     7
 10
305.1088299999999
 20
-155.13341
 30
0.0
 11
305.1088299999999
 21
-195.13855000000001
 31
0.0
  0
LINE
  5
41
  8
_0-1_レイヤ___1
  6
CONTINUOUS
 62
     7
 10
175.14501000000001
 20
-155.13341
 30
0.0
 11
305.1088299999999
 21
-155.13341
 31
0.0
  0
LINE
  5
42
  8
_0-1_レイヤ___1
  6
CONTINUOUS
 62
     7
 10
175.14501000000001
 20
-195.13855000000001
 30
0.0
 11
175.14501000000001
 21
-155.13341
 31
0.0
  0
LINE
  5
43
  8
_0-1_レイヤ___1
  6
CONTINUOUS
 62
     7
 10
175.14501000000001
 20
-155.13341
 30
0.0
 11
175.14501000000001
 21
-190.99555000000001
 31
0.0
  0
LINE
  5
44
  8
_0-1_レイヤ___1
  6
CONTINUOUS
 62
     7
 10
45.139169000000003
 20
-155.13341
 30
0.0
 11
175.14501000000001
 21
-155.13341
 31
0.0
  0
LINE
  5
45
  8
_0-1_レイヤ___1
  6
CONTINUOUS
 62
     7
 10
45.139169000000003
 20
-195.13855000000001
 30
0.0
 11
45.139169000000003
 21
-155.13341
 31
0.0
  0
LINE
  5
46
  8
_0-1_レイヤ___1
  6
CONTINUOUS
 62
     7
 10
175.14501000000001
 20
-195.13855000000001
 30
0.0
 11
45.139169000000003
 21
-195.13855000000001
 31
0.0
  0
LINE
  5
47
  8
_0-1_レイヤ___1
  6
CONTINUOUS
 62
     7
 10
175.14501000000001
 20
-195.13855000000001
 30
0.0
 11
305.1088299999999
 21
-195.13855000000001
 31
0.0
  0
LINE
  5
48
  8
_0-1_レイヤ___1
  6
CONTINUOUS
 62
     7
 10
337.62088
 20
-125.11905400000001
 30
0.0
 11
334.61504000000002
 21
-125.11905400000001
 31
0.0
  0
LINE
  5
49
  8
_0-1_レイヤ___1
  6
CONTINUOUS
 62
     7
 10
334.61504000000002
 20
-125.11905400000001
 30
0.0
 11
334.61504000000002
 21
-165.12419
 31
0.0
  0
LINE
  5
4A
  8
_0-1_レイヤ___1
  6
CONTINUOUS
 62
     7
 10
334.61504000000002
 20
-165.12419
 30
0.0
 11
337.62088
 21
-165.12419
 31
0.0
  0
LINE
  5
4B
  8
_0-1_レイヤ___1
  6
CONTINUOUS
 62
     7
 10
337.62088
 20
-165.12419
 30
0.0
 11
337.62088
 21
-125.11905400000001
 31
0.0
  0
LINE
  5
4C
  8
_0-1_レイヤ___1
  6
CONTINUOUS
 62
     7
 10
15.632614999999999
 20
-125.11905400000001
 30
0.0
 11
12.627114000000001
 21
-125.11905400000001
 31
0.0
  0
LINE
  5
4D
  8
_0-1_レイヤ___1
  6
CONTINUOUS
 62
     7
 10
12.627114000000001
 20
-125.11905400000001
 30
0.0
 11
12.627114000000001
 21
-165.12419
 31
0.0
  0
LINE
  5
4E
  8
_0-1_レイヤ___1
  6
CONTINUOUS
 62
     7
 10
12.627114000000001
 20
-165.12419
 30
0.0
 11
15.632614999999999
 21
-165.12419
 31
0.0
  0
LINE
  5
4F
  8
_0-1_レイヤ___1
  6
CONTINUOUS
 62
     7
 10
15.632614999999999
 20
-165.12419
 30
0.0
 11
15.632614999999999
 21
-125.11905400000001
 31
0.0
  0
LINE
  5
50
  8
_0-1_レイヤ___1
  6
CONTINUOUS
 62
     7
 10
382.62105999999989
 20
119.86409
 30
0.0
 11
381.7325699999999
 21
119.1023799999999
 31
0.0
  0
LINE
  5
51
  8
_0-1_レイヤ___1
  6
CONTINUOUS
 62
     7
 10
381.7325699999999
 20
119.1023799999999
 30
0.0
 11
380.84339
 21
118.2982999999999
 31
0.0
  0
LINE
  5
52
  8
_0-1_レイヤ___1
  6
CONTINUOUS
 62
     7
 10
380.84339
 20
118.2982999999999
 30
0.0
 11
379.95456000000001
 21
117.4935199999999
 31
0.0
  0
LINE
  5
53
  8
_0-1_レイヤ___1
  6
CONTINUOUS
 62
     7
 10
379.95456000000001
 20
117.4935199999999
 30
0.0
 11
379.02231999999992
 21
116.68978
 31
0.0
  0
LINE
  5
54
  8
_0-1_レイヤ___1
  6
CONTINUOUS
 62
     7
 10
379.02231999999992
 20
116.68978
 30
0.0
 11
378.09111000000001
 21
115.84263
 31
0.0
  0
LINE
  5
55
  8
_0-1_レイヤ___1
  6
CONTINUOUS
 62
     7
 10
378.09111000000001
 20
115.84263
 30
0.0
 11
377.16023999999987
 21
114.95345
 31
0.0
  0
LINE
  5
56
  8
_0-1_レイヤ___1
  6
CONTINUOUS
 62
     7
 10
377.16023999999987
 20
114.95345
 30
0.0
 11
376.22868999999992
 21
114.06462000000001
 31
0.0
  0
LINE
  5
57
  8
_0-1_レイヤ___1
  6
CONTINUOUS
 62
     7
 10
376.22868999999992
 20
114.06462000000001
 30
0.0
 11
375.29712999999998
 21
113.17578
 31
0.0
  0
LINE
  5
58
  8
_0-1_レイヤ___1
  6
CONTINUOUS
 62
     7
 10
375.29712999999998
 20
113.17578
 30
0.0
 11
374.36558000000002
 21
112.2445799999999
 31
0.0
  0
LINE
  5
59
  8
_0-1_レイヤ___1
  6
CONTINUOUS
 62
     7
 10
374.36558000000002
 20
112.2445799999999
 30
0.0
 11
373.39233999999999
 21
111.31268
 31
0.0
  0
LINE
  5
5A
  8
_0-1_レイヤ___1
  6
CONTINUOUS
 62
     7
 10
373.39233999999999
 20
111.31268
 30
0.0
 11
372.46044000000001
 21
110.3394399999999
 31
0.0
  0
LINE
  5
5B
  8
_0-1_レイヤ___1
  6
CONTINUOUS
 62
     7
 10
372.46044000000001
 20
110.3394399999999
 30
0.0
 11
371.48755
 21
109.32313000000001
 31
0.0
  0
LINE
  5
5C
  8
_0-1_レイヤ___1
  6
CONTINUOUS
 62
     7
 10
371.48755
 20
109.32313000000001
 30
0.0
 11
370.55599000000001
 21
108.30683000000001
 31
0.0
  0
LINE
  5
5D
  8
_0-1_レイヤ___1
  6
CONTINUOUS
 62
     7
 10
370.55599000000001
 20
108.30683000000001
 30
0.0
 11
369.58206999999999
 21
107.2491899999999
 31
0.0
  0
LINE
  5
5E
  8
_0-1_レイヤ___1
  6
CONTINUOUS
 62
     7
 10
369.58206999999999
 20
107.2491899999999
 30
0.0
 11
368.60883000000001
 21
106.1908499999999
 31
0.0
  0
LINE
  5
5F
  8
_0-1_レイヤ___1
  6
CONTINUOUS
 62
     7
 10
368.60883000000001
 20
106.1908499999999
 30
0.0
 11
367.67795999999993
 21
105.1325199999999
 31
0.0
  0
LINE
  5
60
  8
_0-1_レイヤ___1
  6
CONTINUOUS
 62
     7
 10
367.67795999999993
 20
105.1325199999999
 30
0.0
 11
366.70334000000003
 21
103.98944
 31
0.0
  0
LINE
  5
61
  8
_0-1_レイヤ___1
  6
CONTINUOUS
 62
     7
 10
366.70334000000003
 20
103.98944
 30
0.0
 11
365.77247999999992
 21
102.8467
 31
0.0
  0
LINE
  5
62
  8
_0-1_レイヤ___1
  6
CONTINUOUS
 62
     7
 10
365.77247999999992
 20
102.8467
 30
0.0
 11
364.79854999999992
 21
101.7029299999999
 31
0.0
  0
LINE
  5
63
  8
_0-1_レイヤ___1
  6
CONTINUOUS
 62
     7
 10
364.79854999999992
 20
101.7029299999999
 30
0.0
 11
363.86700000000002
 21
100.51815999999999
 31
0.0
  0
LINE
  5
64
  8
_0-1_レイヤ___1
  6
CONTINUOUS
 62
     7
 10
363.86700000000002
 20
100.51815999999999
 30
0.0
 11
362.93612999999988
 21
99.290329999999997
 31
0.0
  0
LINE
  5
65
  8
_0-1_レイヤ___1
  6
CONTINUOUS
 62
     7
 10
362.93612999999988
 20
99.290329999999997
 30
0.0
 11
362.00457999999992
 21
98.0625
 31
0.0
  0
LINE
  5
66
  8
_0-1_レイヤ___1
  6
CONTINUOUS
 62
     7
 10
362.00457999999992
 20
98.0625
 30
0.0
 11
361.07267999999999
 21
96.792980000000014
 31
0.0
  0
LINE
  5
67
  8
_0-1_レイヤ___1
  6
CONTINUOUS
 62
     7
 10
361.07267999999999
 20
96.792980000000014
 30
0.0
 11
360.14181000000002
 21
95.480050000000006
 31
0.0
  0
LINE
  5
68
  8
_0-1_レイヤ___1
  6
CONTINUOUS
 62
     7
 10
360.14181000000002
 20
95.480050000000006
 30
0.0
 11
359.21060999999992
 21
94.167820000000006
 31
0.0
  0
LINE
  5
69
  8
_0-1_レイヤ___1
  6
CONTINUOUS
 62
     7
 10
359.21060999999992
 20
94.167820000000006
 30
0.0
 11
358.32177000000001
 21
92.812859999999986
 31
0.0
  0
LINE
  5
6A
  8
_0-1_レイヤ___1
  6
CONTINUOUS
 62
     7
 10
358.32177000000001
 20
92.812859999999986
 30
0.0
 11
357.39055999999988
 21
91.416560000000004
 31
0.0
  0
LINE
  5
6B
  8
_0-1_レイヤ___1
  6
CONTINUOUS
 62
     7
 10
357.39055999999988
 20
91.416560000000004
 30
0.0
 11
356.50137999999998
 21
90.019580000000005
 31
0.0
  0
LINE
  5
6C
  8
_0-1_レイヤ___1
  6
CONTINUOUS
 62
     7
 10
356.50137999999998
 20
90.019580000000005
 30
0.0
 11
355.65458000000001
 21
88.580209999999994
 31
0.0
  0
LINE
  5
6D
  8
_0-1_レイヤ___1
  6
CONTINUOUS
 62
     7
 10
355.65458000000001
 20
88.580209999999994
 30
0.0
 11
354.76573999999988
 21
87.140159999999995
 31
0.0
  0
LINE
  5
6E
  8
_0-1_レイヤ___1
  6
CONTINUOUS
 62
     7
 10
354.76573999999988
 20
87.140159999999995
 30
0.0
 11
353.91894000000002
 21
85.659120000000001
 31
0.0
  0
LINE
  5
6F
  8
_0-1_レイヤ___1
  6
CONTINUOUS
 62
     7
 10
353.91894000000002
 20
85.659120000000001
 30
0.0
 11
353.07179000000002
 21
84.135350000000017
 31
0.0
  0
LINE
  5
70
  8
_0-1_レイヤ___1
  6
CONTINUOUS
 62
     7
 10
353.07179000000002
 20
84.135350000000017
 30
0.0
 11
352.26805000000002
 21
82.568870000000004
 31
0.0
  0
LINE
  5
71
  8
_0-1_レイヤ___1
  6
CONTINUOUS
 62
     7
 10
352.26805000000002
 20
82.568870000000004
 30
0.0
 11
351.42124000000001
 21
81.002380000000002
 31
0.0
  0
LINE
  5
72
  8
_0-1_レイヤ___1
  6
CONTINUOUS
 62
     7
 10
351.42124000000001
 20
81.002380000000002
 30
0.0
 11
350.65953000000002
 21
79.351489999999998
 31
0.0
  0
LINE
  5
73
  8
_0-1_レイヤ___1
  6
CONTINUOUS
 62
     7
 10
350.65953000000002
 20
79.351489999999998
 30
0.0
 11
349.85476
 21
77.742980000000003
 31
0.0
  0
LINE
  5
74
  8
_0-1_レイヤ___1
  6
CONTINUOUS
 62
     7
 10
349.85476
 20
77.742980000000003
 30
0.0
 11
349.09269999999992
 21
76.049369999999982
 31
0.0
  0
LINE
  5
75
  8
_0-1_レイヤ___1
  6
CONTINUOUS
 62
     7
 10
349.09269999999992
 20
76.049369999999982
 30
0.0
 11
348.71202
 21
75.202219999999983
 31
0.0
  0
LINE
  5
76
  8
_0-1_レイヤ___1
  6
CONTINUOUS
 62
     7
 10
348.71202
 20
75.202219999999983
 30
0.0
 11
348.33098999999999
 21
74.356449999999981
 31
0.0
  0
LINE
  5
77
  8
_0-1_レイヤ___1
  6
CONTINUOUS
 62
     7
 10
348.33098999999999
 20
74.356449999999981
 30
0.0
 11
347.99234000000001
 21
73.467269999999999
 31
0.0
  0
LINE
  5
78
  8
_0-1_レイヤ___1
  6
CONTINUOUS
 62
     7
 10
347.99234000000001
 20
73.467269999999999
 30
0.0
 11
347.61131
 21
72.62012
 31
0.0
  0
LINE
  5
79
  8
_0-1_レイヤ___1
  6
CONTINUOUS
 62
     7
 10
347.61131
 20
72.62012
 30
0.0
 11
347.27265999999992
 21
71.731290000000001
 31
0.0
  0
LINE
  5
7A
  8
_0-1_レイヤ___1
  6
CONTINUOUS
 62
     7
 10
347.27265999999992
 20
71.731290000000001
 30
0.0
 11
346.89163000000002
 21
70.842449999999999
 31
0.0
  0
LINE
  5
7B
  8
_0-1_レイヤ___1
  6
CONTINUOUS
 62
     7
 10
346.89163000000002
 20
70.842449999999999
 30
0.0
 11
346.55297999999999
 21
69.953270000000003
 31
0.0
  0
LINE
  5
7C
  8
_0-1_レイヤ___1
  6
CONTINUOUS
 62
     7
 10
346.55297999999999
 20
69.953270000000003
 30
0.0
 11
346.21433000000002
 21
69.022412000000003
 31
0.0
  0
LINE
  5
7D
  8
_0-1_レイヤ___1
  6
CONTINUOUS
 62
     7
 10
346.21433000000002
 20
69.022412000000003
 30
0.0
 11
345.87533000000002
 21
68.090169000000003
 31
0.0
  0
LINE
  5
7E
  8
_0-1_レイヤ___1
  6
CONTINUOUS
 62
     7
 10
345.87533000000002
 20
68.090169000000003
 30
0.0
 11
345.53667999999999
 21
67.201335
 31
0.0
  0
LINE
  5
7F
  8
_0-1_レイヤ___1
  6
CONTINUOUS
 62
     7
 10
345.53667999999999
 20
67.201335
 30
0.0
 11
345.24004999999988
 21
66.270470000000003
 31
0.0
  0
LINE
  5
80
  8
_0-1_レイヤ___1
  6
CONTINUOUS
 62
     7
 10
345.24004999999988
 20
66.270470000000003
 30
0.0
 11
344.90208999999987
 21
65.296886000000001
 31
0.0
  0
LINE
  5
81
  8
_0-1_レイヤ___1
  6
CONTINUOUS
 62
     7
 10
344.90208999999987
 20
65.296886000000001
 30
0.0
 11
344.60581000000002
 21
64.365331999999995
 31
0.0
  0
LINE
  5
82
  8
_0-1_レイヤ___1
  6
CONTINUOUS
 62
     7
 10
344.60581000000002
 20
64.365331999999995
 30
0.0
 11
344.26681000000002
 21
63.391748000000007
 31
0.0
  0
LINE
  5
83
  8
_0-1_レイヤ___1
  6
CONTINUOUS
 62
     7
 10
344.26681000000002
 20
63.391748000000007
 30
0.0
 11
343.97054000000009
 21
62.460883000000003
 31
0.0
  0
LINE
  5
84
  8
_0-1_レイヤ___1
  6
CONTINUOUS
 62
     7
 10
343.97054000000009
 20
62.460883000000003
 30
0.0
 11
343.67459999999988
 21
61.486609999999999
 31
0.0
  0
LINE
  5
85
  8
_0-1_レイヤ___1
  6
CONTINUOUS
 62
     7
 10
343.67459999999988
 20
61.486609999999999
 30
0.0
 11
343.37797999999992
 21
60.470996
 31
0.0
  0
LINE
  5
86
  8
_0-1_レイヤ___1
  6
CONTINUOUS
 62
     7
 10
343.37797999999992
 20
60.470996
 30
0.0
 11
343.08136000000002
 21
59.497411999999997
 31
0.0
  0
LINE
  5
87
  8
_0-1_レイヤ___1
  6
CONTINUOUS
 62
     7
 10
343.08136000000002
 20
59.497411999999997
 30
0.0
 11
342.82780000000002
 21
58.481108999999996
 31
0.0
  0
LINE
  5
88
  8
_0-1_レイヤ___1
  6
CONTINUOUS
 62
     7
 10
342.82780000000002
 20
58.481108999999996
 30
0.0
 11
342.53118000000001
 21
57.507525000000001
 31
0.0
  0
LINE
  5
89
  8
_0-1_レイヤ___1
  6
CONTINUOUS
 62
     7
 10
342.53118000000001
 20
57.507525000000001
 30
0.0
 11
342.27726999999987
 21
56.491221999999993
 31
0.0
  0
LINE
  5
8A
  8
_0-1_レイヤ___1
  6
CONTINUOUS
 62
     7
 10
342.27726999999987
 20
56.491221999999993
 30
0.0
 11
342.02301999999992
 21
55.432888000000013
 31
0.0
  0
LINE
  5
8B
  8
_0-1_レイヤ___1
  6
CONTINUOUS
 62
     7
 10
342.02301999999992
 20
55.432888000000013
 30
0.0
 11
341.76945999999992
 21
54.417274000000013
 31
0.0
  0
LINE
  5
8C
  8
_0-1_レイヤ___1
  6
CONTINUOUS
 62
     7
 10
341.76945999999992
 20
54.417274000000013
 30
0.0
 11
341.51452999999992
 21
53.358941000000002
 31
0.0
  0
LINE
  5
8D
  8
_0-1_レイヤ___1
  6
CONTINUOUS
 62
     7
 10
341.51452999999992
 20
53.358941000000002
 30
0.0
 11
341.26096999999987
 21
52.300607999999997
 31
0.0
  0
LINE
  5
8E
  8
_0-1_レイヤ___1
  6
CONTINUOUS
 62
     7
 10
341.26096999999987
 20
52.300607999999997
 30
0.0
 11
341.04977999999988
 21
51.242274000000002
 31
0.0
  0
LINE
  5
8F
  8
_0-1_レイヤ___1
  6
CONTINUOUS
 62
     7
 10
341.04977999999988
 20
51.242274000000002
 30
0.0
 11
340.79518999999999
 21
50.183940999999997
 31
0.0
  0
LINE
  5
90
  8
_0-1_レイヤ___1
  6
CONTINUOUS
 62
     7
 10
340.79518999999999
 20
50.183940999999997
 30
0.0
 11
340.58366000000001
 21
49.083577000000012
 31
0.0
  0
LINE
  5
91
  8
_0-1_レイヤ___1
  6
CONTINUOUS
 62
     7
 10
340.58366000000001
 20
49.083577000000012
 30
0.0
 11
340.37213000000003
 21
48.025244000000001
 31
0.0
  0
LINE
  5
92
  8
_0-1_レイヤ___1
  6
CONTINUOUS
 62
     7
 10
340.37213000000003
 20
48.025244000000001
 30
0.0
 11
340.16061000000002
 21
46.923502999999997
 31
0.0
  0
LINE
  5
93
  8
_0-1_レイヤ___1
  6
CONTINUOUS
 62
     7
 10
340.16061000000002
 20
46.923502999999997
 30
0.0
 11
339.94907999999992
 21
45.823138999999991
 31
0.0
  0
LINE
  5
94
  8
_0-1_レイヤ___1
  6
CONTINUOUS
 62
     7
 10
339.94907999999992
 20
45.823138999999991
 30
0.0
 11
339.77958000000001
 21
44.680745000000002
 31
0.0
  0
LINE
  5
95
  8
_0-1_レイヤ___1
  6
CONTINUOUS
 62
     7
 10
339.77958000000001
 20
44.680745000000002
 30
0.0
 11
339.61041999999992
 21
43.580382
 31
0.0
  0
LINE
  5
96
  8
_0-1_レイヤ___1
  6
CONTINUOUS
 62
     7
 10
339.61041999999992
 20
43.580382
 30
0.0
 11
339.39888999999999
 21
42.436610000000002
 31
0.0
  0
LINE
  5
97
  8
_0-1_レイヤ___1
  6
CONTINUOUS
 62
     7
 10
339.39888999999999
 20
42.436610000000002
 30
0.0
 11
339.2294
 21
41.294217000000003
 31
0.0
  0
LINE
  5
98
  8
_0-1_レイヤ___1
  6
CONTINUOUS
 62
     7
 10
339.2294
 20
41.294217000000003
 30
0.0
 11
339.10226999999992
 21
40.108415000000001
 31
0.0
  0
LINE
  5
99
  8
_0-1_レイヤ___1
  6
CONTINUOUS
 62
     7
 10
339.10226999999992
 20
40.108415000000001
 30
0.0
 11
338.93311999999992
 21
38.966020999999991
 31
0.0
  0
LINE
  5
9A
  8
_0-1_レイヤ___1
  6
CONTINUOUS
 62
     7
 10
338.93311999999992
 20
38.966020999999991
 30
0.0
 11
338.80565000000001
 21
37.780219000000002
 31
0.0
  0
LINE
  5
9B
  8
_0-1_レイヤ___1
  6
CONTINUOUS
 62
     7
 10
338.80565000000001
 20
37.780219000000002
 30
0.0
 11
338.63650000000001
 21
36.594417
 31
0.0
  0
LINE
  5
9C
  8
_0-1_レイヤ___1
  6
CONTINUOUS
 62
     7
 10
338.63650000000001
 20
36.594417
 30
0.0
 11
338.50972000000002
 21
35.409993
 31
0.0
  0
LINE
  5
9D
  8
_0-1_レイヤ___1
  6
CONTINUOUS
 62
     7
 10
338.50972000000002
 20
35.409993
 30
0.0
 11
338.38294000000002
 21
34.224192000000002
 31
0.0
  0
LINE
  5
9E
  8
_0-1_レイヤ___1
  6
CONTINUOUS
 62
     7
 10
338.38294000000002
 20
34.224192000000002
 30
0.0
 11
338.29784000000001
 21
32.996360000000003
 31
0.0
  0
LINE
  5
9F
  8
_0-1_レイヤ___1
  6
CONTINUOUS
 62
     7
 10
338.29784000000001
 20
32.996360000000003
 30
0.0
 11
338.17106000000001
 21
31.768528
 31
0.0
  0
LINE
  5
A0
  8
_0-1_レイヤ___1
  6
CONTINUOUS
 62
     7
 10
338.17106000000001
 20
31.768528
 30
0.0
 11
338.08596999999992
 21
30.540696000000001
 31
0.0
  0
LINE
  5
A1
  8
_0-1_レイヤ___1
  6
CONTINUOUS
 62
     7
 10
338.08596999999992
 20
30.540696000000001
 30
0.0
 11
338.00191000000001
 21
29.312863
 31
0.0
  0
LINE
  5
A2
  8
_0-1_レイヤ___1
  6
CONTINUOUS
 62
     7
 10
338.00191000000001
 20
29.312863
 30
0.0
 11
337.91681
 21
28.043001
 31
0.0
  0
LINE
  5
A3
  8
_0-1_レイヤ___1
  6
CONTINUOUS
 62
     7
 10
337.91681
 20
28.043001
 30
0.0
 11
337.83240999999992
 21
26.773139
 31
0.0
  0
LINE
  5
A4
  8
_0-1_レイヤ___1
  6
CONTINUOUS
 62
     7
 10
337.83240999999992
 20
26.773139
 30
0.0
 11
337.79038000000003
 21
25.503277000000001
 31
0.0
  0
LINE
  5
A5
  8
_0-1_レイヤ___1
  6
CONTINUOUS
 62
     7
 10
337.79038000000003
 20
25.503277000000001
 30
0.0
 11
337.74732
 21
24.233415000000001
 31
0.0
  0
LINE
  5
A6
  8
_0-1_レイヤ___1
  6
CONTINUOUS
 62
     7
 10
337.74732
 20
24.233415000000001
 30
0.0
 11
337.70494000000002
 21
22.963553000000001
 31
0.0
  0
LINE
  5
A7
  8
_0-1_レイヤ___1
  6
CONTINUOUS
 62
     7
 10
337.70494000000002
 20
22.963553000000001
 30
0.0
 11
337.66291000000001
 21
21.650970999999998
 31
0.0
  0
LINE
  5
A8
  8
_0-1_レイヤ___1
  6
CONTINUOUS
 62
     7
 10
337.66291000000001
 20
21.650970999999998
 30
0.0
 11
337.66291000000001
 21
20.339079000000002
 31
0.0
  0
LINE
  5
A9
  8
_0-1_レイヤ___1
  6
CONTINUOUS
 62
     7
 10
337.66291000000001
 20
20.339079000000002
 30
0.0
 11
337.62088
 21
19.026496999999988
 31
0.0
  0
LINE
  5
AA
  8
_0-1_レイヤ___1
  6
CONTINUOUS
 62
     7
 10
337.62088
 20
19.026496999999988
 30
0.0
 11
337.62088
 21
-23.730582999999989
 31
0.0
  0
LINE
  5
AB
  8
_0-1_レイヤ___1
  6
CONTINUOUS
 62
     7
 10
337.62088
 20
-95.146723000000023
 30
0.0
 11
367.63454999999999
 21
-112.164806
 31
0.0
  0
LINE
  5
AC
  8
_0-1_レイヤ___1
  6
CONTINUOUS
 62
     7
 10
367.63454999999999
 20
-112.164806
 30
0.0
 11
367.63454999999999
 21
-178.07843999999989
 31
0.0
  0
LINE
  5
AD
  8
_0-1_レイヤ___1
  6
CONTINUOUS
 62
     7
 10
367.63454999999999
 20
-178.07843999999989
 30
0.0
 11
337.62088
 21
-195.13855000000001
 31
0.0
  0
LINE
  5
AE
  8
_0-1_レイヤ___1
  6
CONTINUOUS
 62
     7
 10
12.627114000000001
 20
-195.13855000000001
 30
0.0
 11
-17.34452799999999
 21
-178.07843999999989
 31
0.0
  0
LINE
  5
AF
  8
_0-1_レイヤ___1
  6
CONTINUOUS
 62
     7
 10
-17.34452799999999
 20
-178.07843999999989
 30
0.0
 11
-17.34452799999999
 21
-112.164806
 31
0.0
  0
LINE
  5
B0
  8
_0-1_レイヤ___1
  6
CONTINUOUS
 62
     7
 10
-17.34452799999999
 20
-112.164806
 30
0.0
 11
12.627114000000001
 21
-95.146723000000023
 31
0.0
  0
LINE
  5
B1
  8
_0-1_レイヤ___1
  6
CONTINUOUS
 62
     7
 10
12.627114000000001
 20
17.671886000000001
 30
0.0
 11
12.627114000000001
 21
20.339079000000002
 31
0.0
  0
LINE
  5
B2
  8
_0-1_レイヤ___1
  6
CONTINUOUS
 62
     7
 10
12.627114000000001
 20
20.339079000000002
 30
0.0
 11
12.584739000000001
 21
21.650970999999998
 31
0.0
  0
LINE
  5
B3
  8
_0-1_レイヤ___1
  6
CONTINUOUS
 62
     7
 10
12.584739000000001
 20
21.650970999999998
 30
0.0
 11
12.542709
 21
22.963553000000001
 31
0.0
  0
LINE
  5
B4
  8
_0-1_レイヤ___1
  6
CONTINUOUS
 62
     7
 10
12.542709
 20
22.963553000000001
 30
0.0
 11
12.500334000000001
 21
24.233415000000001
 31
0.0
  0
LINE
  5
B5
  8
_0-1_レイヤ___1
  6
CONTINUOUS
 62
     7
 10
12.500334000000001
 20
24.233415000000001
 30
0.0
 11
12.457615000000001
 21
25.503277000000001
 31
0.0
  0
LINE
  5
B6
  8
_0-1_レイヤ___1
  6
CONTINUOUS
 62
     7
 10
12.457615000000001
 20
25.503277000000001
 30
0.0
 11
12.415584999999989
 21
26.773139
 31
0.0
  0
LINE
  5
B7
  8
_0-1_レイヤ___1
  6
CONTINUOUS
 62
     7
 10
12.415584999999989
 20
26.773139
 30
0.0
 11
12.33118
 21
28.043001
 31
0.0
  0
LINE
  5
B8
  8
_0-1_レイヤ___1
  6
CONTINUOUS
 62
     7
 10
12.33118
 20
28.043001
 30
0.0
 11
12.246085999999989
 21
29.312863
 31
0.0
  0
LINE
  5
B9
  8
_0-1_レイヤ___1
  6
CONTINUOUS
 62
     7
 10
12.246085999999989
 20
29.312863
 30
0.0
 11
12.161681
 21
30.540696000000001
 31
0.0
  0
LINE
  5
BA
  8
_0-1_レイヤ___1
  6
CONTINUOUS
 62
     7
 10
12.161681
 20
30.540696000000001
 30
0.0
 11
12.076587
 21
31.768528
 31
0.0
  0
LINE
  5
BB
  8
_0-1_レイヤ___1
  6
CONTINUOUS
 62
     7
 10
12.076587
 20
31.768528
 30
0.0
 11
11.950497
 21
32.996360000000003
 31
0.0
  0
LINE
  5
BC
  8
_0-1_レイヤ___1
  6
CONTINUOUS
 62
     7
 10
11.950497
 20
32.996360000000003
 30
0.0
 11
11.865059
 21
34.224192000000002
 31
0.0
  0
LINE
  5
BD
  8
_0-1_レイヤ___1
  6
CONTINUOUS
 62
     7
 10
11.865059
 20
34.224192000000002
 30
0.0
 11
11.73793499999999
 21
35.409993
 31
0.0
  0
LINE
  5
BE
  8
_0-1_レイヤ___1
  6
CONTINUOUS
 62
     7
 10
11.73793499999999
 20
35.409993
 30
0.0
 11
11.611499999999999
 21
36.594417
 31
0.0
  0
LINE
  5
BF
  8
_0-1_レイヤ___1
  6
CONTINUOUS
 62
     7
 10
11.611499999999999
 20
36.594417
 30
0.0
 11
11.48437599999999
 21
37.780219000000002
 31
0.0
  0
LINE
  5
C0
  8
_0-1_レイヤ___1
  6
CONTINUOUS
 62
     7
 10
11.48437599999999
 20
37.780219000000002
 30
0.0
 11
11.315220999999999
 21
38.966020999999991
 31
0.0
  0
LINE
  5
C1
  8
_0-1_レイヤ___1
  6
CONTINUOUS
 62
     7
 10
11.315220999999999
 20
38.966020999999991
 30
0.0
 11
11.187753000000001
 21
40.108415000000001
 31
0.0
  0
LINE
  5
C2
  8
_0-1_レイヤ___1
  6
CONTINUOUS
 62
     7
 10
11.187753000000001
 20
40.108415000000001
 30
0.0
 11
11.018254000000001
 21
41.294217000000003
 31
0.0
  0
LINE
  5
C3
  8
_0-1_レイヤ___1
  6
CONTINUOUS
 62
     7
 10
11.018254000000001
 20
41.294217000000003
 30
0.0
 11
10.849099999999989
 21
42.436610000000002
 31
0.0
  0
LINE
  5
C4
  8
_0-1_レイヤ___1
  6
CONTINUOUS
 62
     7
 10
10.849099999999989
 20
42.436610000000002
 30
0.0
 11
10.679600999999989
 21
43.580382
 31
0.0
  0
LINE
  5
C5
  8
_0-1_レイヤ___1
  6
CONTINUOUS
 62
     7
 10
10.679600999999989
 20
43.580382
 30
0.0
 11
10.468071999999999
 21
44.680745000000002
 31
0.0
  0
LINE
  5
C6
  8
_0-1_レイヤ___1
  6
CONTINUOUS
 62
     7
 10
10.468071999999999
 20
44.680745000000002
 30
0.0
 11
10.29891799999999
 21
45.823138999999991
 31
0.0
  0
LINE
  5
C7
  8
_0-1_レイヤ___1
  6
CONTINUOUS
 62
     7
 10
10.29891799999999
 20
45.823138999999991
 30
0.0
 11
10.087045
 21
46.923502999999997
 31
0.0
  0
LINE
  5
C8
  8
_0-1_レイヤ___1
  6
CONTINUOUS
 62
     7
 10
10.087045
 20
46.923502999999997
 30
0.0
 11
9.8758600000000012
 21
48.025244000000001
 31
0.0
  0
LINE
  5
C9
  8
_0-1_レイヤ___1
  6
CONTINUOUS
 62
     7
 10
9.8758600000000012
 20
48.025244000000001
 30
0.0
 11
9.6639869999999917
 21
49.083577000000012
 31
0.0
  0
LINE
  5
CA
  8
_0-1_レイヤ___1
  6
CONTINUOUS
 62
     7
 10
9.6639869999999917
 20
49.083577000000012
 30
0.0
 11
9.4528030000000012
 21
50.183940999999997
 31
0.0
  0
LINE
  5
CB
  8
_0-1_レイヤ___1
  6
CONTINUOUS
 62
     7
 10
9.4528030000000012
 20
50.183940999999997
 30
0.0
 11
9.24058500000001
 21
51.242274000000002
 31
0.0
  0
LINE
  5
CC
  8
_0-1_レイヤ___1
  6
CONTINUOUS
 62
     7
 10
9.24058500000001
 20
51.242274000000002
 30
0.0
 11
8.9866810000000026
 21
52.300607999999997
 31
0.0
  0
LINE
  5
CD
  8
_0-1_レイヤ___1
  6
CONTINUOUS
 62
     7
 10
8.9866810000000026
 20
52.300607999999997
 30
0.0
 11
8.7331220000000087
 21
53.358941000000002
 31
0.0
  0
LINE
  5
CE
  8
_0-1_レイヤ___1
  6
CONTINUOUS
 62
     7
 10
8.7331220000000087
 20
53.358941000000002
 30
0.0
 11
8.4785300000000063
 21
54.417274000000013
 31
0.0
  0
LINE
  5
CF
  8
_0-1_レイヤ___1
  6
CONTINUOUS
 62
     7
 10
8.4785300000000063
 20
54.417274000000013
 30
0.0
 11
8.2246260000000007
 21
55.432888000000013
 31
0.0
  0
LINE
  5
D0
  8
_0-1_レイヤ___1
  6
CONTINUOUS
 62
     7
 10
8.2246260000000007
 20
55.432888000000013
 30
0.0
 11
7.9703779999999957
 21
56.491221999999993
 31
0.0
  0
LINE
  5
D1
  8
_0-1_レイヤ___1
  6
CONTINUOUS
 62
     7
 10
7.9703779999999957
 20
56.491221999999993
 30
0.0
 11
7.7168190000000001
 21
57.507525000000001
 31
0.0
  0
LINE
  5
D2
  8
_0-1_レイヤ___1
  6
CONTINUOUS
 62
     7
 10
7.7168190000000001
 20
57.507525000000001
 30
0.0
 11
7.4201960000000033
 21
58.481108999999996
 31
0.0
  0
LINE
  5
D3
  8
_0-1_レイヤ___1
  6
CONTINUOUS
 62
     7
 10
7.4201960000000033
 20
58.481108999999996
 30
0.0
 11
7.166292999999996
 21
59.497411999999997
 31
0.0
  0
LINE
  5
D4
  8
_0-1_レイヤ___1
  6
CONTINUOUS
 62
     7
 10
7.166292999999996
 20
59.497411999999997
 30
0.0
 11
6.8700149999999951
 21
60.470996
 31
0.0
  0
LINE
  5
D5
  8
_0-1_レイヤ___1
  6
CONTINUOUS
 62
     7
 10
6.8700149999999951
 20
60.470996
 30
0.0
 11
6.5733919999999983
 21
61.486609999999999
 31
0.0
  0
LINE
  5
D6
  8
_0-1_レイヤ___1
  6
CONTINUOUS
 62
     7
 10
6.5733919999999983
 20
61.486609999999999
 30
0.0
 11
6.2774579999999949
 21
62.460883000000003
 31
0.0
  0
LINE
  5
D7
  8
_0-1_レイヤ___1
  6
CONTINUOUS
 62
     7
 10
6.2774579999999949
 20
62.460883000000003
 30
0.0
 11
5.980834999999999
 21
63.391748000000007
 31
0.0
  0
LINE
  5
D8
  8
_0-1_レイヤ___1
  6
CONTINUOUS
 62
     7
 10
5.980834999999999
 20
63.391748000000007
 30
0.0
 11
5.6845569999999981
 21
64.365331999999995
 31
0.0
  0
LINE
  5
D9
  8
_0-1_レイヤ___1
  6
CONTINUOUS
 62
     7
 10
5.6845569999999981
 20
64.365331999999995
 30
0.0
 11
5.3455600000000061
 21
65.296886000000001
 31
0.0
  0
LINE
  5
DA
  8
_0-1_レイヤ___1
  6
CONTINUOUS
 62
     7
 10
5.3455600000000061
 20
65.296886000000001
 30
0.0
 11
5.0496260000000044
 21
66.270470000000003
 31
0.0
  0
LINE
  5
DB
  8
_0-1_レイヤ___1
  6
CONTINUOUS
 62
     7
 10
5.0496260000000044
 20
66.270470000000003
 30
0.0
 11
4.7109729999999947
 21
67.201335
 31
0.0
  0
LINE
  5
DC
  8
_0-1_レイヤ___1
  6
CONTINUOUS
 62
     7
 10
4.7109729999999947
 20
67.201335
 30
0.0
 11
4.3723200000000011
 21
68.090169000000003
 31
0.0
  0
LINE
  5
DD
  8
_0-1_レイヤ___1
  6
CONTINUOUS
 62
     7
 10
4.3723200000000011
 20
68.090169000000003
 30
0.0
 11
4.0336680000000049
 21
69.022412000000003
 31
0.0
  0
LINE
  5
DE
  8
_0-1_レイヤ___1
  6
CONTINUOUS
 62
     7
 10
4.0336680000000049
 20
69.022412000000003
 30
0.0
 11
3.6946700000000008
 21
69.953270000000003
 31
0.0
  0
LINE
  5
DF
  8
_0-1_レイヤ___1
  6
CONTINUOUS
 62
     7
 10
3.6946700000000008
 20
69.953270000000003
 30
0.0
 11
3.356017000000008
 21
70.842449999999999
 31
0.0
  0
LINE
  5
E0
  8
_0-1_レイヤ___1
  6
CONTINUOUS
 62
     7
 10
3.356017000000008
 20
70.842449999999999
 30
0.0
 11
2.9749899999999911
 21
71.731290000000001
 31
0.0
  0
LINE
  5
E1
  8
_0-1_レイヤ___1
  6
CONTINUOUS
 62
     7
 10
2.9749899999999911
 20
71.731290000000001
 30
0.0
 11
2.636336999999997
 21
72.62012
 31
0.0
  0
LINE
  5
E2
  8
_0-1_レイヤ___1
  6
CONTINUOUS
 62
     7
 10
2.636336999999997
 20
72.62012
 30
0.0
 11
2.255308999999996
 21
73.467269999999999
 31
0.0
  0
LINE
  5
E3
  8
_0-1_レイヤ___1
  6
CONTINUOUS
 62
     7
 10
2.255308999999996
 20
73.467269999999999
 30
0.0
 11
1.916656000000003
 21
74.356449999999981
 31
0.0
  0
LINE
  5
E4
  8
_0-1_レイヤ___1
  6
CONTINUOUS
 62
     7
 10
1.916656000000003
 20
74.356449999999981
 30
0.0
 11
1.535972999999998
 21
75.202219999999983
 31
0.0
  0
LINE
  5
E5
  8
_0-1_レイヤ___1
  6
CONTINUOUS
 62
     7
 10
1.535972999999998
 20
75.202219999999983
 30
0.0
 11
1.1549459999999949
 21
76.049369999999982
 31
0.0
  0
LINE
  5
E6
  8
_0-1_レイヤ___1
  6
CONTINUOUS
 62
     7
 10
1.1549459999999949
 20
76.049369999999982
 30
0.0
 11
0.39358
 21
77.742980000000003
 31
0.0
  0
LINE
  5
E7
  8
_0-1_レイヤ___1
  6
CONTINUOUS
 62
     7
 10
0.39358
 20
77.742980000000003
 30
0.0
 11
-0.3691650000000095
 21
79.351489999999998
 31
0.0
  0
LINE
  5
E8
  8
_0-1_レイヤ___1
  6
CONTINUOUS
 62
     7
 10
-0.3691650000000095
 20
79.351489999999998
 30
0.0
 11
-1.173249999999995
 21
81.002380000000002
 31
0.0
  0
LINE
  5
E9
  8
_0-1_レイヤ___1
  6
CONTINUOUS
 62
     7
 10
-1.173249999999995
 20
81.002380000000002
 30
0.0
 11
-1.978024000000004
 21
82.568870000000004
 31
0.0
  0
LINE
  5
EA
  8
_0-1_レイヤ___1
  6
CONTINUOUS
 62
     7
 10
-1.978024000000004
 20
82.568870000000004
 30
0.0
 11
-2.823794999999989
 21
84.135350000000017
 31
0.0
  0
LINE
  5
EB
  8
_0-1_レイヤ___1
  6
CONTINUOUS
 62
     7
 10
-2.823794999999989
 20
84.135350000000017
 30
0.0
 11
-3.6709439999999911
 21
85.659120000000001
 31
0.0
  0
LINE
  5
EC
  8
_0-1_レイヤ___1
  6
CONTINUOUS
 62
     7
 10
-3.6709439999999911
 20
85.659120000000001
 30
0.0
 11
-4.5177490000000091
 21
87.140159999999995
 31
0.0
  0
LINE
  5
ED
  8
_0-1_レイヤ___1
  6
CONTINUOUS
 62
     7
 10
-4.5177490000000091
 20
87.140159999999995
 30
0.0
 11
-5.4065829999999968
 21
88.580209999999994
 31
0.0
  0
LINE
  5
EE
  8
_0-1_レイヤ___1
  6
CONTINUOUS
 62
     7
 10
-5.4065829999999968
 20
88.580209999999994
 30
0.0
 11
-6.2537320000000003
 21
90.019580000000005
 31
0.0
  0
LINE
  5
EF
  8
_0-1_レイヤ___1
  6
CONTINUOUS
 62
     7
 10
-6.2537320000000003
 20
90.019580000000005
 30
0.0
 11
-7.1425669999999988
 21
91.416560000000004
 31
0.0
  0
LINE
  5
F0
  8
_0-1_レイヤ___1
  6
CONTINUOUS
 62
     7
 10
-7.1425669999999988
 20
91.416560000000004
 30
0.0
 11
-8.0317459999999983
 21
92.812859999999986
 31
0.0
  0
LINE
  5
F1
  8
_0-1_レイヤ___1
  6
CONTINUOUS
 62
     7
 10
-8.0317459999999983
 20
92.812859999999986
 30
0.0
 11
-8.9626110000000097
 21
94.167820000000006
 31
0.0
  0
LINE
  5
F2
  8
_0-1_レイヤ___1
  6
CONTINUOUS
 62
     7
 10
-8.9626110000000097
 20
94.167820000000006
 30
0.0
 11
-9.8938200000000034
 21
95.480050000000006
 31
0.0
  0
LINE
  5
F3
  8
_0-1_レイヤ___1
  6
CONTINUOUS
 62
     7
 10
-9.8938200000000034
 20
95.480050000000006
 30
0.0
 11
-10.78299899999999
 21
96.792980000000014
 31
0.0
  0
LINE
  5
F4
  8
_0-1_レイヤ___1
  6
CONTINUOUS
 62
     7
 10
-10.78299899999999
 20
96.792980000000014
 30
0.0
 11
-11.713863999999999
 21
98.0625
 31
0.0
  0
LINE
  5
F5
  8
_0-1_レイヤ___1
  6
CONTINUOUS
 62
     7
 10
-11.713863999999999
 20
98.0625
 30
0.0
 11
-12.646107000000001
 21
99.290329999999997
 31
0.0
  0
LINE
  5
F6
  8
_0-1_レイヤ___1
  6
CONTINUOUS
 62
     7
 10
-12.646107000000001
 20
99.290329999999997
 30
0.0
 11
-13.619346
 21
100.51815999999999
 31
0.0
  0
LINE
  5
F7
  8
_0-1_レイヤ___1
  6
CONTINUOUS
 62
     7
 10
-13.619346
 20
100.51815999999999
 30
0.0
 11
-14.550556
 21
101.7029299999999
 31
0.0
  0
LINE
  5
F8
  8
_0-1_レイヤ___1
  6
CONTINUOUS
 62
     7
 10
-14.550556
 20
101.7029299999999
 30
0.0
 11
-15.524483999999999
 21
102.8467
 31
0.0
  0
LINE
  5
F9
  8
_0-1_レイヤ___1
  6
CONTINUOUS
 62
     7
 10
-15.524483999999999
 20
102.8467
 30
0.0
 11
-16.455692999999989
 21
103.98944
 31
0.0
  0
LINE
  5
FA
  8
_0-1_レイヤ___1
  6
CONTINUOUS
 62
     7
 10
-16.455692999999989
 20
103.98944
 30
0.0
 11
-17.429621999999991
 21
105.1325199999999
 31
0.0
  0
LINE
  5
FB
  8
_0-1_レイヤ___1
  6
CONTINUOUS
 62
     7
 10
-17.429621999999991
 20
105.1325199999999
 30
0.0
 11
-18.360831000000001
 21
106.1908499999999
 31
0.0
  0
LINE
  5
FC
  8
_0-1_レイヤ___1
  6
CONTINUOUS
 62
     7
 10
-18.360831000000001
 20
106.1908499999999
 30
0.0
 11
-19.334415
 21
107.2491899999999
 31
0.0
  0
LINE
  5
FD
  8
_0-1_レイヤ___1
  6
CONTINUOUS
 62
     7
 10
-19.334415
 20
107.2491899999999
 30
0.0
 11
-20.266313999999991
 21
108.30683000000001
 31
0.0
  0
LINE
  5
FE
  8
_0-1_レイヤ___1
  6
CONTINUOUS
 62
     7
 10
-20.266313999999991
 20
108.30683000000001
 30
0.0
 11
-21.23955299999999
 21
109.32313000000001
 31
0.0
  0
LINE
  5
FF
  8
_0-1_レイヤ___1
  6
CONTINUOUS
 62
     7
 10
-21.23955299999999
 20
109.32313000000001
 30
0.0
 11
-22.212447999999991
 21
110.3394399999999
 31
0.0
  0
LINE
  5
100
  8
_0-1_レイヤ___1
  6
CONTINUOUS
 62
     7
 10
-22.212447999999991
 20
110.3394399999999
 30
0.0
 11
-23.144690999999991
 21
111.31268
 31
0.0
  0
LINE
  5
101
  8
_0-1_レイヤ___1
  6
CONTINUOUS
 62
     7
 10
-23.144690999999991
 20
111.31268
 30
0.0
 11
-24.07589999999999
 21
112.2445799999999
 31
0.0
  0
LINE
  5
102
  8
_0-1_レイヤ___1
  6
CONTINUOUS
 62
     7
 10
-24.07589999999999
 20
112.2445799999999
 30
0.0
 11
-25.048794999999981
 21
113.17578
 31
0.0
  0
LINE
  5
103
  8
_0-1_レイヤ___1
  6
CONTINUOUS
 62
     7
 10
-25.048794999999981
 20
113.17578
 30
0.0
 11
-25.981038000000002
 21
114.06462000000001
 31
0.0
  0
LINE
  5
104
  8
_0-1_レイヤ___1
  6
CONTINUOUS
 62
     7
 10
-25.981038000000002
 20
114.06462000000001
 30
0.0
 11
-26.912247000000011
 21
114.95345
 31
0.0
  0
LINE
  5
105
  8
_0-1_レイヤ___1
  6
CONTINUOUS
 62
     7
 10
-26.912247000000011
 20
114.95345
 30
0.0
 11
-27.843111999999991
 21
115.84263
 31
0.0
  0
LINE
  5
106
  8
_0-1_レイヤ___1
  6
CONTINUOUS
 62
     7
 10
-27.843111999999991
 20
115.84263
 30
0.0
 11
-28.774665999999989
 21
116.68978
 31
0.0
  0
LINE
  5
107
  8
_0-1_レイヤ___1
  6
CONTINUOUS
 62
     7
 10
-28.774665999999989
 20
116.68978
 30
0.0
 11
-29.663499999999999
 21
117.4935199999999
 31
0.0
  0
LINE
  5
108
  8
_0-1_レイヤ___1
  6
CONTINUOUS
 62
     7
 10
-29.663499999999999
 20
117.4935199999999
 30
0.0
 11
-30.595742999999992
 21
118.2982999999999
 31
0.0
  0
LINE
  5
109
  8
_0-1_レイヤ___1
  6
CONTINUOUS
 62
     7
 10
-30.595742999999992
 20
118.2982999999999
 30
0.0
 11
-31.484232999999989
 21
119.1023799999999
 31
0.0
  0
LINE
  5
10A
  8
_0-1_レイヤ___1
  6
CONTINUOUS
 62
     7
 10
-31.484232999999989
 20
119.1023799999999
 30
0.0
 11
-32.373412999999999
 21
119.86409
 31
0.0
  0
LINE
  5
10B
  8
_0-1_レイヤ___1
  6
CONTINUOUS
 62
     7
 10
16.77604199999999
 20
404.85306999999989
 30
0.0
 11
37.646431
 21
404.85306999999989
 31
0.0
  0
LINE
  5
10C
  8
_0-1_レイヤ___1
  6
CONTINUOUS
 62
     7
 10
337.62088
 20
-195.13855000000001
 30
0.0
 11
305.1088299999999
 21
-195.13855000000001
 31
0.0
  0
LINE
  5
10D
  8
_0-1_レイヤ___1
  6
CONTINUOUS
 62
     7
 10
12.627114000000001
 20
-95.146723000000023
 30
0.0
 11
12.627114000000001
 21
-33.720671000000003
 31
0.0
  0
LINE
  5
10E
  8
_0-1_レイヤ___1
  6
CONTINUOUS
 62
     7
 10
-32.373412999999999
 20
119.86409
 30
0.0
 11
-32.373412999999999
 21
124.85983
 31
0.0
  0
LINE
  5
10F
  8
_0-1_レイヤ___1
  6
CONTINUOUS
 62
     7
 10
-32.373412999999999
 20
239.49812999999989
 30
0.0
 11
-32.24628899999999
 21
241.23446000000001
 31
0.0
  0
LINE
  5
110
  8
_0-1_レイヤ___1
  6
CONTINUOUS
 62
     7
 10
-32.24628899999999
 20
241.23446000000001
 30
0.0
 11
-32.160850000000011
 21
243.01248000000001
 31
0.0
  0
LINE
  5
111
  8
_0-1_レイヤ___1
  6
CONTINUOUS
 62
     7
 10
-32.160850000000011
 20
243.01248000000001
 30
0.0
 11
-32.034415000000003
 21
244.83217999999991
 31
0.0
  0
LINE
  5
112
  8
_0-1_レイヤ___1
  6
CONTINUOUS
 62
     7
 10
-32.034415000000003
 20
244.83217999999991
 30
0.0
 11
-31.865261
 21
246.65255999999999
 31
0.0
  0
LINE
  5
113
  8
_0-1_レイヤ___1
  6
CONTINUOUS
 62
     7
 10
-31.865261
 20
246.65255999999999
 30
0.0
 11
-31.696107000000008
 21
248.55770000000001
 31
0.0
  0
LINE
  5
114
  8
_0-1_レイヤ___1
  6
CONTINUOUS
 62
     7
 10
-31.696107000000008
 20
248.55770000000001
 30
0.0
 11
-31.52660800000001
 21
250.46284
 31
0.0
  0
LINE
  5
115
  8
_0-1_レイヤ___1
  6
CONTINUOUS
 62
     7
 10
-31.52660800000001
 20
250.46284
 30
0.0
 11
-31.315079000000001
 21
252.41034999999991
 31
0.0
  0
LINE
  5
116
  8
_0-1_レイヤ___1
  6
CONTINUOUS
 62
     7
 10
-31.315079000000001
 20
252.41034999999991
 30
0.0
 11
-31.102516999999999
 21
254.39989999999989
 31
0.0
  0
LINE
  5
117
  8
_0-1_レイヤ___1
  6
CONTINUOUS
 62
     7
 10
-31.102516999999999
 20
254.39989999999989
 30
0.0
 11
-30.84895800000001
 21
256.43146999999999
 31
0.0
  0
LINE
  5
118
  8
_0-1_レイヤ___1
  6
CONTINUOUS
 62
     7
 10
-30.84895800000001
 20
256.43146999999999
 30
0.0
 11
-30.595742999999992
 21
258.46406999999999
 31
0.0
  0
LINE
  5
119
  8
_0-1_レイヤ___1
  6
CONTINUOUS
 62
     7
 10
-30.595742999999992
 20
258.46406999999999
 30
0.0
 11
-30.340805999999979
 21
260.53802000000002
 31
0.0
  0
LINE
  5
11A
  8
_0-1_レイヤ___1
  6
CONTINUOUS
 62
     7
 10
-30.340805999999979
 20
260.53802000000002
 30
0.0
 11
-30.045217000000012
 21
262.65469000000002
 31
0.0
  0
LINE
  5
11B
  8
_0-1_レイヤ___1
  6
CONTINUOUS
 62
     7
 10
-30.045217000000012
 20
262.65469000000002
 30
0.0
 11
-29.748594000000001
 21
264.81373000000002
 31
0.0
  0
LINE
  5
11C
  8
_0-1_レイヤ___1
  6
CONTINUOUS
 62
     7
 10
-29.748594000000001
 20
264.81373000000002
 30
0.0
 11
-29.409941
 21
267.01515000000001
 31
0.0
  0
LINE
  5
11D
  8
_0-1_レイヤ___1
  6
CONTINUOUS
 62
     7
 10
-29.409941
 20
267.01515000000001
 30
0.0
 11
-29.070944000000001
 21
269.21622000000002
 31
0.0
  0
LINE
  5
11E
  8
_0-1_レイヤ___1
  6
CONTINUOUS
 62
     7
 10
-29.070944000000001
 20
269.21622000000002
 30
0.0
 11
-28.690260999999989
 21
271.41798
 31
0.0
  0
LINE
  5
11F
  8
_0-1_レイヤ___1
  6
CONTINUOUS
 62
     7
 10
-28.690260999999989
 20
271.41798
 30
0.0
 11
-28.30923300000001
 21
273.70344999999992
 31
0.0
  0
LINE
  5
120
  8
_0-1_レイヤ___1
  6
CONTINUOUS
 62
     7
 10
-28.30923300000001
 20
273.70344999999992
 30
0.0
 11
-27.928205999999982
 21
275.98962
 31
0.0
  0
LINE
  5
121
  8
_0-1_レイヤ___1
  6
CONTINUOUS
 62
     7
 10
-27.928205999999982
 20
275.98962
 30
0.0
 11
-27.504459000000001
 21
278.31781999999998
 31
0.0
  0
LINE
  5
122
  8
_0-1_レイヤ___1
  6
CONTINUOUS
 62
     7
 10
-27.504459000000001
 20
278.31781999999998
 30
0.0
 11
-27.08174600000001
 21
280.64636000000002
 31
0.0
  0
LINE
  5
123
  8
_0-1_レイヤ___1
  6
CONTINUOUS
 62
     7
 10
-27.08174600000001
 20
280.64636000000002
 30
0.0
 11
-26.615624
 21
283.01726999999988
 31
0.0
  0
LINE
  5
124
  8
_0-1_レイヤ___1
  6
CONTINUOUS
 62
     7
 10
-26.615624
 20
283.01726999999988
 30
0.0
 11
-26.150192000000001
 21
285.38749999999999
 31
0.0
  0
LINE
  5
125
  8
_0-1_レイヤ___1
  6
CONTINUOUS
 62
     7
 10
-26.150192000000001
 20
285.38749999999999
 30
0.0
 11
-25.64238499999999
 21
287.80113
 31
0.0
  0
LINE
  5
126
  8
_0-1_レイヤ___1
  6
CONTINUOUS
 62
     7
 10
-25.64238499999999
 20
287.80113
 30
0.0
 11
-25.134232999999991
 21
290.2561
 31
0.0
  0
LINE
  5
127
  8
_0-1_レイヤ___1
  6
CONTINUOUS
 62
     7
 10
-25.134232999999991
 20
290.2561
 30
0.0
 11
-24.584051999999978
 21
292.66905000000003
 31
0.0
  0
LINE
  5
128
  8
_0-1_レイヤ___1
  6
CONTINUOUS
 62
     7
 10
-24.584051999999978
 20
292.66905000000003
 30
0.0
 11
-24.033525000000001
 21
295.16674
 31
0.0
  0
LINE
  5
129
  8
_0-1_レイヤ___1
  6
CONTINUOUS
 62
     7
 10
-24.033525000000001
 20
295.16674
 30
0.0
 11
-23.483343999999988
 21
297.6644399999999
 31
0.0
  0
LINE
  5
12A
  8
_0-1_レイヤ___1
  6
CONTINUOUS
 62
     7
 10
-23.483343999999988
 20
297.6644399999999
 30
0.0
 11
-22.890097999999991
 21
300.16178999999988
 31
0.0
  0
LINE
  5
12B
  8
_0-1_レイヤ___1
  6
CONTINUOUS
 62
     7
 10
-22.890097999999991
 20
300.16178999999988
 30
0.0
 11
-22.255511999999989
 21
302.70186000000001
 31
0.0
  0
LINE
  5
12C
  8
_0-1_レイヤ___1
  6
CONTINUOUS
 62
     7
 10
-22.255511999999989
 20
302.70186000000001
 30
0.0
 11
-21.620235999999998
 21
305.24227000000002
 31
0.0
  0
LINE
  5
12D
  8
_0-1_レイヤ___1
  6
CONTINUOUS
 62
     7
 10
-21.620235999999998
 20
305.24227000000002
 30
0.0
 11
-20.985994000000002
 21
307.82436999999987
 31
0.0
  0
LINE
  5
12E
  8
_0-1_レイヤ___1
  6
CONTINUOUS
 62
     7
 10
-20.985994000000002
 20
307.82436999999987
 30
0.0
 11
-20.308344000000002
 21
310.40681000000001
 31
0.0
  0
LINE
  5
12F
  8
_0-1_レイヤ___1
  6
CONTINUOUS
 62
     7
 10
37.646431
 20
404.85306999999989
 30
0.0
 11
37.646431
 21
380.21427
 31
0.0
  0
LINE
  5
130
  8
_0-1_レイヤ___1
  6
CONTINUOUS
 62
     7
 10
175.14501000000001
 20
-155.13341
 30
0.0
 11
305.1088299999999
 21
-155.13341
 31
0.0
  0
LINE
  5
131
  8
_0-1_レイヤ___1
  6
CONTINUOUS
 62
     7
 10
305.1088299999999
 20
-155.13341
 30
0.0
 11
305.1088299999999
 21
-195.13855000000001
 31
0.0
  0
LINE
  5
132
  8
_0-1_レイヤ___1
  6
CONTINUOUS
 62
     7
 10
175.14501000000001
 20
-155.13341
 30
0.0
 11
305.1088299999999
 21
-155.13341
 31
0.0
  0
LINE
  5
133
  8
_0-1_レイヤ___1
  6
CONTINUOUS
 62
     7
 10
305.1088299999999
 20
-155.13341
 30
0.0
 11
305.1088299999999
 21
-195.13855000000001
 31
0.0
  0
LINE
  5
134
  8
_0-1_レイヤ___1
  6
CONTINUOUS
 62
     7
 10
175.14501000000001
 20
-155.13341
 30
0.0
 11
45.139169000000003
 21
-155.13341
 31
0.0
  0
LINE
  5
135
  8
_0-1_レイヤ___1
  6
CONTINUOUS
 62
     7
 10
45.139169000000003
 20
-155.13341
 30
0.0
 11
45.139169000000003
 21
-195.13855000000001
 31
0.0
  0
LINE
  5
136
  8
_0-1_レイヤ___1
  6
CONTINUOUS
 62
     7
 10
175.14501000000001
 20
-155.13341
 30
0.0
 11
45.139169000000003
 21
-155.13341
 31
0.0
  0
LINE
  5
137
  8
_0-1_レイヤ___1
  6
CONTINUOUS
 62
     7
 10
45.139169000000003
 20
-155.13341
 30
0.0
 11
45.139169000000003
 21
-195.13855000000001
 31
0.0
  0
LINE
  5
138
  8
_0-1_レイヤ___1
  6
CONTINUOUS
 62
     7
 10
45.139169000000003
 20
-195.13855000000001
 30
0.0
 11
15.632614999999999
 21
-195.13855000000001
 31
0.0
  0
LINE
  5
139
  8
_0-1_レイヤ___1
  6
CONTINUOUS
 62
     7
 10
37.646431
 20
127.52701999999999
 30
0.0
 11
34.640585000000002
 21
127.52701999999999
 31
0.0
  0
LINE
  5
13A
  8
_0-1_レイヤ___1
  6
CONTINUOUS
 62
     7
 10
34.640585000000002
 20
127.52701999999999
 30
0.0
 11
34.640585000000002
 21
87.521879999999982
 31
0.0
  0
LINE
  5
13B
  8
_0-1_レイヤ___1
  6
CONTINUOUS
 62
     7
 10
34.640585000000002
 20
87.521879999999982
 30
0.0
 11
37.646431
 21
87.521879999999982
 31
0.0
  0
LINE
  5
13C
  8
_0-1_レイヤ___1
  6
CONTINUOUS
 62
     7
 10
37.646431
 20
87.521879999999982
 30
0.0
 11
37.646431
 21
127.52701999999999
 31
0.0
  0
LINE
  5
13D
  8
_0-1_レイヤ___1
  6
CONTINUOUS
 62
     7
 10
37.646431
 20
-125.11905400000001
 30
0.0
 11
34.640585000000002
 21
-125.11905400000001
 31
0.0
  0
LINE
  5
13E
  8
_0-1_レイヤ___1
  6
CONTINUOUS
 62
     7
 10
34.640585000000002
 20
-125.11905400000001
 30
0.0
 11
34.640585000000002
 21
-165.12419
 31
0.0
  0
LINE
  5
13F
  8
_0-1_レイヤ___1
  6
CONTINUOUS
 62
     7
 10
34.640585000000002
 20
-165.12419
 30
0.0
 11
37.646431
 21
-165.12419
 31
0.0
  0
LINE
  5
140
  8
_0-1_レイヤ___1
  6
CONTINUOUS
 62
     7
 10
37.646431
 20
-165.12419
 30
0.0
 11
37.646431
 21
-125.11905400000001
 31
0.0
  0
LINE
  5
141
  8
_0-1_レイヤ___1
  6
CONTINUOUS
 62
     7
 10
37.646431
 20
380.21427
 30
0.0
 11
34.640585000000002
 21
380.21427
 31
0.0
  0
LINE
  5
142
  8
_0-1_レイヤ___1
  6
CONTINUOUS
 62
     7
 10
34.640585000000002
 20
380.21427
 30
0.0
 11
34.640585000000002
 21
340.20929999999993
 31
0.0
  0
LINE
  5
143
  8
_0-1_レイヤ___1
  6
CONTINUOUS
 62
     7
 10
34.640585000000002
 20
340.20929999999993
 30
0.0
 11
37.646431
 21
340.20929999999993
 31
0.0
  0
LINE
  5
144
  8
_0-1_レイヤ___1
  6
CONTINUOUS
 62
     7
 10
37.646431
 20
340.20929999999993
 30
0.0
 11
37.646431
 21
240.38731000000001
 31
0.0
  0
LINE
  5
145
  8
_0-1_レイヤ___1
  6
CONTINUOUS
 62
     7
 10
-29.367567000000001
 20
124.85983
 30
0.0
 11
-29.367567000000001
 21
134.8505999999999
 31
0.0
  0
LINE
  5
146
  8
_0-1_レイヤ___1
  6
CONTINUOUS
 62
     7
 10
-29.367567000000001
 20
134.8505999999999
 30
0.0
 11
-32.373412999999999
 21
134.8505999999999
 31
0.0
  0
LINE
  5
147
  8
_0-1_レイヤ___1
  6
CONTINUOUS
 62
     7
 10
-32.373412999999999
 20
124.85983
 30
0.0
 11
-29.367567000000001
 21
124.85983
 31
0.0
  0
LINE
  5
148
  8
_0-1_レイヤ___1
  6
CONTINUOUS
 62
     7
 10
-32.373412999999999
 20
134.8505999999999
 30
0.0
 11
-32.373412999999999
 21
224.51266000000001
 31
0.0
  0
LINE
  5
149
  8
_0-1_レイヤ___1
  6
CONTINUOUS
 62
     7
 10
-32.373412999999999
 20
224.51266000000001
 30
0.0
 11
-29.367567000000001
 21
224.51266000000001
 31
0.0
  0
LINE
  5
14A
  8
_0-1_レイヤ___1
  6
CONTINUOUS
 62
     7
 10
-32.373412999999999
 20
234.5030899999999
 30
0.0
 11
-29.367567000000001
 21
234.5030899999999
 31
0.0
  0
LINE
  5
14B
  8
_0-1_レイヤ___1
  6
CONTINUOUS
 62
     7
 10
-29.367567000000001
 20
234.5030899999999
 30
0.0
 11
-29.367567000000001
 21
224.51266000000001
 31
0.0
  0
LINE
  5
14C
  8
_0-1_レイヤ___1
  6
CONTINUOUS
 62
     7
 10
-32.373412999999999
 20
234.5030899999999
 30
0.0
 11
-32.373412999999999
 21
239.49812999999989
 31
0.0
  0
LINE
  5
14D
  8
_0-1_レイヤ___1
  6
CONTINUOUS
 62
     7
 10
14.40512699999999
 20
400.44990000000001
 30
0.0
 11
17.071975999999999
 21
399.09494000000001
 31
0.0
  0
LINE
  5
14E
  8
_0-1_レイヤ___1
  6
CONTINUOUS
 62
     7
 10
9.8334859999999917
 20
391.55999999999989
 30
0.0
 11
12.500334000000001
 21
390.16266999999988
 31
0.0
  0
LINE
  5
14F
  8
_0-1_レイヤ___1
  6
CONTINUOUS
 62
     7
 10
12.500334000000001
 20
390.16266999999988
 30
0.0
 11
17.071975999999999
 21
399.09494000000001
 31
0.0
  0
LINE
  5
150
  8
_0-1_レイヤ___1
  6
CONTINUOUS
 62
     7
 10
14.40512699999999
 20
400.44990000000001
 30
0.0
 11
15.590585000000001
 21
402.65096999999997
 31
0.0
  0
LINE
  5
151
  8
_0-1_レイヤ___1
  6
CONTINUOUS
 62
     7
 10
15.590585000000001
 20
402.65096999999997
 30
0.0
 11
16.77604199999999
 21
404.85306999999989
 31
0.0
  0
LINE
  5
152
  8
_0-1_レイヤ___1
  6
CONTINUOUS
 62
     7
 10
-32.373412999999999
 20
234.5030899999999
 30
0.0
 11
-32.373412999999999
 21
239.49812999999989
 31
0.0
  0
LINE
  5
153
  8
_0-1_レイヤ___1
  6
CONTINUOUS
 62
     7
 10
-14.76277299999999
 20
319.25382000000002
 30
0.0
 11
-17.386903
 21
309.60237999999993
 31
0.0
  0
LINE
  5
154
  8
_0-1_レイヤ___1
  6
CONTINUOUS
 62
     7
 10
-17.386903
 20
309.60237999999993
 30
0.0
 11
-20.308344000000002
 21
310.40681000000001
 31
0.0
  0
LINE
  5
155
  8
_0-1_レイヤ___1
  6
CONTINUOUS
 62
     7
 10
-14.76277299999999
 20
319.25382000000002
 30
0.0
 11
-17.641151000000001
 21
320.01656000000003
 31
0.0
  0
LINE
  5
156
  8
_0-1_レイヤ___1
  6
CONTINUOUS
 62
     7
 10
-17.641151000000001
 20
320.01656000000003
 30
0.0
 11
-17.005875
 21
322.21762999999999
 31
0.0
  0
LINE
  5
157
  8
_0-1_レイヤ___1
  6
CONTINUOUS
 62
     7
 10
-17.005875
 20
322.21762999999999
 30
0.0
 11
-16.371289000000001
 21
324.41973999999999
 31
0.0
  0
LINE
  5
158
  8
_0-1_レイヤ___1
  6
CONTINUOUS
 62
     7
 10
-16.371289000000001
 20
324.41973999999999
 30
0.0
 11
-15.693982999999999
 21
326.62081000000001
 31
0.0
  0
LINE
  5
159
  8
_0-1_レイヤ___1
  6
CONTINUOUS
 62
     7
 10
-15.693982999999999
 20
326.62081000000001
 30
0.0
 11
-15.058707
 21
328.82154000000003
 31
0.0
  0
LINE
  5
15A
  8
_0-1_レイヤ___1
  6
CONTINUOUS
 62
     7
 10
-15.058707
 20
328.82154000000003
 30
0.0
 11
-14.339027
 21
331.02330000000001
 31
0.0
  0
LINE
  5
15B
  8
_0-1_レイヤ___1
  6
CONTINUOUS
 62
     7
 10
-14.339027
 20
331.02330000000001
 30
0.0
 11
-13.661721
 21
333.22471000000002
 31
0.0
  0
LINE
  5
15C
  8
_0-1_レイヤ___1
  6
CONTINUOUS
 62
     7
 10
-13.661721
 20
333.22471000000002
 30
0.0
 11
-12.94203999999999
 21
335.46816000000001
 31
0.0
  0
LINE
  5
15D
  8
_0-1_レイヤ___1
  6
CONTINUOUS
 62
     7
 10
-12.94203999999999
 20
335.46816000000001
 30
0.0
 11
-12.179985
 21
337.66958
 31
0.0
  0
LINE
  5
15E
  8
_0-1_レイヤ___1
  6
CONTINUOUS
 62
     7
 10
-12.179985
 20
337.66958
 30
0.0
 11
-11.460305
 21
339.91370999999992
 31
0.0
  0
LINE
  5
15F
  8
_0-1_レイヤ___1
  6
CONTINUOUS
 62
     7
 10
-11.460305
 20
339.91370999999992
 30
0.0
 11
-10.698594
 21
342.15647000000001
 31
0.0
  0
LINE
  5
160
  8
_0-1_レイヤ___1
  6
CONTINUOUS
 62
     7
 10
-10.698594
 20
342.15647000000001
 30
0.0
 11
-9.9358500000000021
 21
344.40059999999988
 31
0.0
  0
LINE
  5
161
  8
_0-1_レイヤ___1
  6
CONTINUOUS
 62
     7
 10
-9.9358500000000021
 20
344.40059999999988
 30
0.0
 11
-9.1321089999999998
 21
346.64404999999999
 31
0.0
  0
LINE
  5
162
  8
_0-1_レイヤ___1
  6
CONTINUOUS
 62
     7
 10
-9.1321089999999998
 20
346.64404999999999
 30
0.0
 11
-8.327335000000005
 21
348.88749999999999
 31
0.0
  0
LINE
  5
163
  8
_0-1_レイヤ___1
  6
CONTINUOUS
 62
     7
 10
-8.327335000000005
 20
348.88749999999999
 30
0.0
 11
-7.5235940000000019
 21
351.13162999999992
 31
0.0
  0
LINE
  5
164
  8
_0-1_レイヤ___1
  6
CONTINUOUS
 62
     7
 10
-7.5235940000000019
 20
351.13162999999992
 30
0.0
 11
-6.6764450000000011
 21
353.37490000000003
 31
0.0
  0
LINE
  5
165
  8
_0-1_レイヤ___1
  6
CONTINUOUS
 62
     7
 10
-6.6764450000000011
 20
353.37490000000003
 30
0.0
 11
-5.8296410000000094
 21
355.61903999999993
 31
0.0
  0
LINE
  5
166
  8
_0-1_レイヤ___1
  6
CONTINUOUS
 62
     7
 10
-5.8296410000000094
 20
355.61903999999993
 30
0.0
 11
-4.9408060000000091
 21
357.90503000000001
 31
0.0
  0
LINE
  5
167
  8
_0-1_レイヤ___1
  6
CONTINUOUS
 62
     7
 10
-4.9408060000000091
 20
357.90503000000001
 30
0.0
 11
-4.0946909999999956
 21
360.14830999999992
 31
0.0
  0
LINE
  5
168
  8
_0-1_レイヤ___1
  6
CONTINUOUS
 62
     7
 10
-4.0946909999999956
 20
360.14830999999992
 30
0.0
 11
-3.2055119999999979
 21
362.39227
 31
0.0
  0
LINE
  5
169
  8
_0-1_レイヤ___1
  6
CONTINUOUS
 62
     7
 10
-3.2055119999999979
 20
362.39227
 30
0.0
 11
-2.2739579999999928
 21
364.63605999999987
 31
0.0
  0
LINE
  5
16A
  8
_0-1_レイヤ___1
  6
CONTINUOUS
 62
     7
 10
-2.2739579999999928
 20
364.63605999999987
 30
0.0
 11
-1.3427489999999971
 21
366.92153999999999
 31
0.0
  0
LINE
  5
16B
  8
_0-1_レイヤ___1
  6
CONTINUOUS
 62
     7
 10
-1.3427489999999971
 20
366.92153999999999
 30
0.0
 11
-0.4115390000000047
 21
369.16566999999992
 31
0.0
  0
LINE
  5
16C
  8
_0-1_レイヤ___1
  6
CONTINUOUS
 62
     7
 10
-0.4115390000000047
 20
369.16566999999992
 30
0.0
 11
0.5196699999999908
 21
371.40929
 31
0.0
  0
LINE
  5
16D
  8
_0-1_レイヤ___1
  6
CONTINUOUS
 62
     7
 10
0.5196699999999908
 20
371.40929
 30
0.0
 11
1.4939430000000009
 21
373.65255999999999
 31
0.0
  0
LINE
  5
16E
  8
_0-1_レイヤ___1
  6
CONTINUOUS
 62
     7
 10
1.4939430000000009
 20
373.65255999999999
 30
0.0
 11
2.5102459999999951
 21
375.89670000000001
 31
0.0
  0
LINE
  5
16F
  8
_0-1_レイヤ___1
  6
CONTINUOUS
 62
     7
 10
2.5102459999999951
 20
375.89670000000001
 30
0.0
 11
3.4834859999999992
 21
378.14066000000003
 31
0.0
  0
LINE
  5
170
  8
_0-1_レイヤ___1
  6
CONTINUOUS
 62
     7
 10
3.4834859999999992
 20
378.14066000000003
 30
0.0
 11
4.499443999999996
 21
380.38359000000003
 31
0.0
  0
LINE
  5
171
  8
_0-1_レイヤ___1
  6
CONTINUOUS
 62
     7
 10
4.499443999999996
 20
380.38359000000003
 30
0.0
 11
5.5577779999999981
 21
382.62772999999999
 31
0.0
  0
LINE
  5
172
  8
_0-1_レイヤ___1
  6
CONTINUOUS
 62
     7
 10
5.5577779999999981
 20
382.62772999999999
 30
0.0
 11
6.5733919999999983
 21
384.87099999999998
 31
0.0
  0
LINE
  5
173
  8
_0-1_レイヤ___1
  6
CONTINUOUS
 62
     7
 10
6.5733919999999983
 20
384.87099999999998
 30
0.0
 11
7.6747890000000032
 21
387.11495999999988
 31
0.0
  0
LINE
  5
174
  8
_0-1_レイヤ___1
  6
CONTINUOUS
 62
     7
 10
7.6747890000000032
 20
387.11495999999988
 30
0.0
 11
8.7331220000000087
 21
389.31603999999987
 31
0.0
  0
LINE
  5
175
  8
_0-1_レイヤ___1
  6
CONTINUOUS
 62
     7
 10
8.7331220000000087
 20
389.31603999999987
 30
0.0
 11
9.8334859999999917
 21
391.55999999999989
 31
0.0
  0
LINE
  5
176
  8
_0-1_レイヤ___1
  6
CONTINUOUS
 62
     7
 10
315.60741000000002
 20
127.52701999999999
 30
0.0
 11
312.64393999999987
 21
127.52701999999999
 31
0.0
  0
LINE
  5
177
  8
_0-1_レイヤ___1
  6
CONTINUOUS
 62
     7
 10
312.64393999999987
 20
127.52701999999999
 30
0.0
 11
312.64393999999987
 21
87.521879999999982
 31
0.0
  0
LINE
  5
178
  8
_0-1_レイヤ___1
  6
CONTINUOUS
 62
     7
 10
312.64393999999987
 20
87.521879999999982
 30
0.0
 11
315.60741000000002
 21
87.521879999999982
 31
0.0
  0
LINE
  5
179
  8
_0-1_レイヤ___1
  6
CONTINUOUS
 62
     7
 10
315.60741000000002
 20
87.521879999999982
 30
0.0
 11
315.60741000000002
 21
127.52701999999999
 31
0.0
  0
LINE
  5
17A
  8
_0-1_レイヤ___1
  6
CONTINUOUS
 62
     7
 10
315.60741000000002
 20
-125.11905400000001
 30
0.0
 11
312.64393999999987
 21
-125.11905400000001
 31
0.0
  0
LINE
  5
17B
  8
_0-1_レイヤ___1
  6
CONTINUOUS
 62
     7
 10
312.64393999999987
 20
-125.11905400000001
 30
0.0
 11
312.64393999999987
 21
-165.12419
 31
0.0
  0
LINE
  5
17C
  8
_0-1_レイヤ___1
  6
CONTINUOUS
 62
     7
 10
312.64393999999987
 20
-165.12419
 30
0.0
 11
315.60741000000002
 21
-165.12419
 31
0.0
  0
LINE
  5
17D
  8
_0-1_レイヤ___1
  6
CONTINUOUS
 62
     7
 10
315.60741000000002
 20
-165.12419
 30
0.0
 11
315.60741000000002
 21
-125.11905400000001
 31
0.0
  0
LINE
  5
17E
  8
_0-1_レイヤ___1
  6
CONTINUOUS
 62
     7
 10
382.62105999999989
 20
134.8505999999999
 30
0.0
 11
382.62105999999989
 21
224.51266000000001
 31
0.0
  0
LINE
  5
17F
  8
_0-1_レイヤ___1
  6
CONTINUOUS
 62
     7
 10
382.62105999999989
 20
119.86409
 30
0.0
 11
382.62105999999989
 21
124.85983
 31
0.0
  0
LINE
  5
180
  8
_0-1_レイヤ___1
  6
CONTINUOUS
 62
     7
 10
382.62105999999989
 20
124.85983
 30
0.0
 11
379.61556000000002
 21
124.85983
 31
0.0
  0
LINE
  5
181
  8
_0-1_レイヤ___1
  6
CONTINUOUS
 62
     7
 10
382.62105999999989
 20
134.8505999999999
 30
0.0
 11
379.61556000000002
 21
134.8505999999999
 31
0.0
  0
LINE
  5
182
  8
_0-1_レイヤ___1
  6
CONTINUOUS
 62
     7
 10
379.61556000000002
 20
134.8505999999999
 30
0.0
 11
379.61556000000002
 21
124.85983
 31
0.0
  0
LINE
  5
183
  8
_0-1_レイヤ___1
  6
CONTINUOUS
 62
     7
 10
382.62105999999989
 20
239.49812999999989
 30
0.0
 11
382.40919000000002
 21
243.01248000000001
 31
0.0
  0
LINE
  5
184
  8
_0-1_レイヤ___1
  6
CONTINUOUS
 62
     7
 10
382.40919000000002
 20
243.01248000000001
 30
0.0
 11
382.11291
 21
246.65255999999999
 31
0.0
  0
LINE
  5
185
  8
_0-1_レイヤ___1
  6
CONTINUOUS
 62
     7
 10
382.11291
 20
246.65255999999999
 30
0.0
 11
381.77459999999991
 21
250.46284
 31
0.0
  0
LINE
  5
186
  8
_0-1_レイヤ___1
  6
CONTINUOUS
 62
     7
 10
381.77459999999991
 20
250.46284
 30
0.0
 11
381.35086000000001
 21
254.39989999999989
 31
0.0
  0
LINE
  5
187
  8
_0-1_レイヤ___1
  6
CONTINUOUS
 62
     7
 10
381.35086000000001
 20
254.39989999999989
 30
0.0
 11
380.88542000000001
 21
258.46406999999999
 31
0.0
  0
LINE
  5
188
  8
_0-1_レイヤ___1
  6
CONTINUOUS
 62
     7
 10
380.88542000000001
 20
258.46406999999999
 30
0.0
 11
380.29217999999997
 21
262.65469000000002
 31
0.0
  0
LINE
  5
189
  8
_0-1_レイヤ___1
  6
CONTINUOUS
 62
     7
 10
380.29217999999997
 20
262.65469000000002
 30
0.0
 11
379.65794
 21
267.01515000000001
 31
0.0
  0
LINE
  5
18A
  8
_0-1_レイヤ___1
  6
CONTINUOUS
 62
     7
 10
379.65794
 20
267.01515000000001
 30
0.0
 11
378.97994
 21
271.41798
 31
0.0
  0
LINE
  5
18B
  8
_0-1_レイヤ___1
  6
CONTINUOUS
 62
     7
 10
378.97994
 20
271.41798
 30
0.0
 11
378.17653999999987
 21
275.98962
 31
0.0
  0
LINE
  5
18C
  8
_0-1_レイヤ___1
  6
CONTINUOUS
 62
     7
 10
378.17653999999987
 20
275.98962
 30
0.0
 11
377.32940000000002
 21
280.64636000000002
 31
0.0
  0
LINE
  5
18D
  8
_0-1_レイヤ___1
  6
CONTINUOUS
 62
     7
 10
377.32940000000002
 20
280.64636000000002
 30
0.0
 11
376.39819
 21
285.38749999999999
 31
0.0
  0
LINE
  5
18E
  8
_0-1_レイヤ___1
  6
CONTINUOUS
 62
     7
 10
376.39819
 20
285.38749999999999
 30
0.0
 11
375.38222999999988
 21
290.2561
 31
0.0
  0
LINE
  5
18F
  8
_0-1_レイヤ___1
  6
CONTINUOUS
 62
     7
 10
375.38222999999988
 20
290.2561
 30
0.0
 11
374.28151999999989
 21
295.16674
 31
0.0
  0
LINE
  5
190
  8
_0-1_レイヤ___1
  6
CONTINUOUS
 62
     7
 10
374.28151999999989
 20
295.16674
 30
0.0
 11
373.13808999999998
 21
300.16178999999988
 31
0.0
  0
LINE
  5
191
  8
_0-1_レイヤ___1
  6
CONTINUOUS
 62
     7
 10
373.13808999999998
 20
300.16178999999988
 30
0.0
 11
371.86788999999999
 21
305.24227000000002
 31
0.0
  0
LINE
  5
192
  8
_0-1_レイヤ___1
  6
CONTINUOUS
 62
     7
 10
371.86788999999999
 20
305.24227000000002
 30
0.0
 11
370.55599000000001
 21
310.40681000000001
 31
0.0
  0
LINE
  5
193
  8
_0-1_レイヤ___1
  6
CONTINUOUS
 62
     7
 10
365.01042000000001
 20
319.25382000000002
 30
0.0
 11
367.67795999999993
 21
309.60237999999993
 31
0.0
  0
LINE
  5
194
  8
_0-1_レイヤ___1
  6
CONTINUOUS
 62
     7
 10
367.67795999999993
 20
309.60237999999993
 30
0.0
 11
370.55599000000001
 21
310.40681000000001
 31
0.0
  0
LINE
  5
195
  8
_0-1_レイヤ___1
  6
CONTINUOUS
 62
     7
 10
365.01042000000001
 20
319.25382000000002
 30
0.0
 11
367.93151999999998
 21
320.01656000000003
 31
0.0
  0
LINE
  5
196
  8
_0-1_レイヤ___1
  6
CONTINUOUS
 62
     7
 10
379.61556000000002
 20
234.5030899999999
 30
0.0
 11
379.61556000000002
 21
224.51266000000001
 31
0.0
  0
LINE
  5
197
  8
_0-1_レイヤ___1
  6
CONTINUOUS
 62
     7
 10
379.61556000000002
 20
224.51266000000001
 30
0.0
 11
382.62105999999989
 21
224.51266000000001
 31
0.0
  0
LINE
  5
198
  8
_0-1_レイヤ___1
  6
CONTINUOUS
 62
     7
 10
382.62105999999989
 20
234.5030899999999
 30
0.0
 11
382.62105999999989
 21
239.49812999999989
 31
0.0
  0
LINE
  5
199
  8
_0-1_レイヤ___1
  6
CONTINUOUS
 62
     7
 10
382.62105999999989
 20
239.49812999999989
 30
0.0
 11
382.62105999999989
 21
234.5030899999999
 31
0.0
  0
LINE
  5
19A
  8
_0-1_レイヤ___1
  6
CONTINUOUS
 62
     7
 10
382.62105999999989
 20
234.5030899999999
 30
0.0
 11
379.61556000000002
 21
234.5030899999999
 31
0.0
  0
LINE
  5
19B
  8
_0-1_レイヤ___1
  6
CONTINUOUS
 62
     7
 10
367.93151999999998
 20
320.01656000000003
 30
0.0
 11
365.30635999999993
 21
328.82154000000003
 31
0.0
  0
LINE
  5
19C
  8
_0-1_レイヤ___1
  6
CONTINUOUS
 62
     7
 10
365.30635999999993
 20
328.82154000000003
 30
0.0
 11
362.47001
 21
337.66958
 31
0.0
  0
LINE
  5
19D
  8
_0-1_レイヤ___1
  6
CONTINUOUS
 62
     7
 10
362.47001
 20
337.66958
 30
0.0
 11
359.38010000000003
 21
346.64404999999999
 31
0.0
  0
LINE
  5
19E
  8
_0-1_レイヤ___1
  6
CONTINUOUS
 62
     7
 10
359.38010000000003
 20
346.64404999999999
 30
0.0
 11
356.07763999999992
 21
355.61903999999993
 31
0.0
  0
LINE
  5
19F
  8
_0-1_レイヤ___1
  6
CONTINUOUS
 62
     7
 10
356.07763999999992
 20
355.61903999999993
 30
0.0
 11
352.52161000000001
 21
364.63605999999987
 31
0.0
  0
LINE
  5
1A0
  8
_0-1_レイヤ___1
  6
CONTINUOUS
 62
     7
 10
352.52161000000001
 20
364.63605999999987
 30
0.0
 11
348.75405000000001
 21
373.65255999999999
 31
0.0
  0
LINE
  5
1A1
  8
_0-1_レイヤ___1
  6
CONTINUOUS
 62
     7
 10
348.75405000000001
 20
373.65255999999999
 30
0.0
 11
344.73293999999999
 21
382.62772999999999
 31
0.0
  0
LINE
  5
1A2
  8
_0-1_レイヤ___1
  6
CONTINUOUS
 62
     7
 10
344.73293999999999
 20
382.62772999999999
 30
0.0
 11
340.41451000000001
 21
391.55999999999989
 31
0.0
  0
LINE
  5
1A3
  8
_0-1_レイヤ___1
  6
CONTINUOUS
 62
     7
 10
333.17567000000008
 20
399.09494000000001
 30
0.0
 11
337.74732
 21
390.16266999999988
 31
0.0
  0
LINE
  5
1A4
  8
_0-1_レイヤ___1
  6
CONTINUOUS
 62
     7
 10
337.74732
 20
390.16266999999988
 30
0.0
 11
340.41451000000001
 21
391.55999999999989
 31
0.0
  0
LINE
  5
1A5
  8
_0-1_レイヤ___1
  6
CONTINUOUS
 62
     7
 10
333.47161
 20
404.85306999999989
 30
0.0
 11
335.84320999999989
 21
400.44990000000001
 31
0.0
  0
LINE
  5
1A6
  8
_0-1_レイヤ___1
  6
CONTINUOUS
 62
     7
 10
335.84320999999989
 20
400.44990000000001
 30
0.0
 11
333.17567000000008
 21
399.09494000000001
 31
0.0
  0
LINE
  5
1A7
  8
_0-1_レイヤ___1
  6
CONTINUOUS
 62
     7
 10
15.632614999999999
 20
-195.13855000000001
 30
0.0
 11
15.632614999999999
 21
-185.1470799999999
 31
0.0
  0
LINE
  5
1A8
  8
_0-1_レイヤ___1
  6
CONTINUOUS
 62
     7
 10
15.632614999999999
 20
-185.1470799999999
 30
0.0
 11
12.627114000000001
 21
-185.1470799999999
 31
0.0
  0
LINE
  5
1A9
  8
_0-1_レイヤ___1
  6
CONTINUOUS
 62
     7
 10
12.627114000000001
 20
-185.1470799999999
 30
0.0
 11
12.627114000000001
 21
-195.13855000000001
 31
0.0
  0
LINE
  5
1AA
  8
_0-1_レイヤ___1
  6
CONTINUOUS
 62
     7
 10
12.627114000000001
 20
-33.720671000000003
 30
0.0
 11
15.632614999999999
 21
-33.720671000000003
 31
0.0
  0
LINE
  5
1AB
  8
_0-1_レイヤ___1
  6
CONTINUOUS
 62
     7
 10
15.632614999999999
 20
-23.730582999999989
 30
0.0
 11
12.627114000000001
 21
-23.730582999999989
 31
0.0
  0
LINE
  5
1AC
  8
_0-1_レイヤ___1
  6
CONTINUOUS
 62
     7
 10
15.632614999999999
 20
115.8006
 30
0.0
 11
12.627114000000001
 21
115.8006
 31
0.0
  0
LINE
  5
1AD
  8
_0-1_レイヤ___1
  6
CONTINUOUS
 62
     7
 10
15.632614999999999
 20
105.8091399999999
 30
0.0
 11
12.627114000000001
 21
105.8091399999999
 31
0.0
  0
LINE
  5
1AE
  8
_0-1_レイヤ___1
  6
CONTINUOUS
 62
     7
 10
12.627114000000001
 20
105.8091399999999
 30
0.0
 11
12.627114000000001
 21
115.8006
 31
0.0
  0
LINE
  5
1AF
  8
_0-1_レイヤ___1
  6
CONTINUOUS
 62
     7
 10
15.632614999999999
 20
-33.720671000000003
 30
0.0
 11
15.632614999999999
 21
-23.730582999999989
 31
0.0
  0
LINE
  5
1B0
  8
_0-1_レイヤ___1
  6
CONTINUOUS
 62
     7
 10
15.632614999999999
 20
105.8091399999999
 30
0.0
 11
15.632614999999999
 21
115.8006
 31
0.0
  0
LINE
  5
1B1
  8
_0-1_レイヤ___1
  6
CONTINUOUS
 62
     7
 10
12.627114000000001
 20
-23.730582999999989
 30
0.0
 11
12.627114000000001
 21
17.671886000000001
 31
0.0
  0
LINE
  5
1B2
  8
_0-1_レイヤ___1
  6
CONTINUOUS
 62
     7
 10
337.62088
 20
-185.1470799999999
 30
0.0
 11
337.62088
 21
-195.13855000000001
 31
0.0
  0
LINE
  5
1B3
  8
_0-1_レイヤ___1
  6
CONTINUOUS
 62
     7
 10
334.61504000000002
 20
-195.13855000000001
 30
0.0
 11
334.61504000000002
 21
-185.1470799999999
 31
0.0
  0
LINE
  5
1B4
  8
_0-1_レイヤ___1
  6
CONTINUOUS
 62
     7
 10
334.61504000000002
 20
-185.1470799999999
 30
0.0
 11
337.62088
 21
-185.1470799999999
 31
0.0
  0
LINE
  5
1B5
  8
_0-1_レイヤ___1
  6
CONTINUOUS
 62
     7
 10
334.61504000000002
 20
105.8091399999999
 30
0.0
 11
334.61504000000002
 21
115.8006
 31
0.0
  0
LINE
  5
1B6
  8
_0-1_レイヤ___1
  6
CONTINUOUS
 62
     7
 10
337.62088
 20
115.8006
 30
0.0
 11
337.62088
 21
105.8091399999999
 31
0.0
  0
LINE
  5
1B7
  8
_0-1_レイヤ___1
  6
CONTINUOUS
 62
     7
 10
337.62088
 20
105.8091399999999
 30
0.0
 11
334.61504000000002
 21
105.8091399999999
 31
0.0
  0
LINE
  5
1B8
  8
_0-1_レイヤ___1
  6
CONTINUOUS
 62
     7
 10
334.61504000000002
 20
115.8006
 30
0.0
 11
337.62088
 21
115.8006
 31
0.0
  0
LINE
  5
1B9
  8
_0-1_レイヤ___1
  6
CONTINUOUS
 62
     7
 10
334.61504000000002
 20
-33.720671000000003
 30
0.0
 11
334.61504000000002
 21
-23.730582999999989
 31
0.0
  0
LINE
  5
1BA
  8
_0-1_レイヤ___1
  6
CONTINUOUS
 62
     7
 10
334.61504000000002
 20
-23.730582999999989
 30
0.0
 11
337.62088
 21
-23.730582999999989
 31
0.0
  0
LINE
  5
1BB
  8
_0-1_レイヤ___1
  6
CONTINUOUS
 62
     7
 10
334.61504000000002
 20
-33.720671000000003
 30
0.0
 11
337.62088
 21
-33.720671000000003
 31
0.0
  0
LINE
  5
1BC
  8
_0-1_レイヤ___1
  6
CONTINUOUS
 62
     7
 10
337.62088
 20
-33.720671000000003
 30
0.0
 11
337.62088
 21
-95.146723000000023
 31
0.0
  0
LINE
  5
1BD
  8
_0-1_レイヤ___1
  6
CONTINUOUS
 62
     7
 10
7.6317250000000021
 20
122.8695899999999
 30
0.0
 11
-2.3590519999999908
 21
122.8695899999999
 31
0.0
  0
LINE
  5
1BE
  8
_0-1_レイヤ___1
  6
CONTINUOUS
 62
     7
 10
-2.3590519999999908
 20
119.86409
 30
0.0
 11
7.6317250000000021
 21
119.86409
 31
0.0
  0
LINE
  5
1BF
  8
_0-1_レイヤ___1
  6
CONTINUOUS
 62
     7
 10
7.6317250000000021
 20
119.86409
 30
0.0
 11
7.6317250000000021
 21
122.8695899999999
 31
0.0
  0
LINE
  5
1C0
  8
_0-1_レイヤ___1
  6
CONTINUOUS
 62
     7
 10
-2.3590519999999908
 20
122.8695899999999
 30
0.0
 11
-2.3590519999999908
 21
119.86409
 31
0.0
  0
LINE
  5
1C1
  8
_0-0_0
  6
CONTINUOUS
 62
     7
 10
315.64393999999999
 20
340.20929999999993
 30
0.0
 11
315.64393999999999
 21
380.21427
 31
0.0
  0
LINE
  5
1C2
  8
_0-0_0
  6
CONTINUOUS
 62
     7
 10
312.64393999999987
 20
340.20929999999993
 30
0.0
 11
315.64393999999999
 21
340.20929999999993
 31
0.0
  0
LINE
  5
1C3
  8
_0-1_レイヤ___1
  6
CONTINUOUS
 62
     7
 10
312.64393999999987
 20
404.85306999999989
 30
0.0
 11
333.47161
 21
404.85306999999989
 31
0.0
  0
LINE
  5
1C4
  8
_0-1_レイヤ___1
  6
CONTINUOUS
 62
     7
 10
312.64393999999987
 20
380.21427
 30
0.0
 11
312.64393999999987
 21
404.85306999999989
 31
0.0
  0
LINE
  5
1C5
  8
_0-1_レイヤ___1
  6
CONTINUOUS
 62
     7
 10
37.646431
 20
240.38731000000001
 30
0.0
 11
37.646431
 21
236.78926000000001
 31
0.0
  0
LINE
  5
1C6
  8
_0-1_レイヤ___1
  6
CONTINUOUS
 62
     7
 10
37.646431
 20
236.78926000000001
 30
0.0
 11
37.68846099999999
 21
235.90042
 31
0.0
  0
LINE
  5
1C7
  8
_0-1_レイヤ___1
  6
CONTINUOUS
 62
     7
 10
37.68846099999999
 20
235.90042
 30
0.0
 11
37.68846099999999
 21
235.05327
 31
0.0
  0
LINE
  5
1C8
  8
_0-1_レイヤ___1
  6
CONTINUOUS
 62
     7
 10
37.68846099999999
 20
235.05327
 30
0.0
 11
37.731523999999993
 21
234.20646999999991
 31
0.0
  0
LINE
  5
1C9
  8
_0-1_レイヤ___1
  6
CONTINUOUS
 62
     7
 10
37.731523999999993
 20
234.20646999999991
 30
0.0
 11
37.773555000000002
 21
233.36035000000001
 31
0.0
  0
LINE
  5
1CA
  8
_0-1_レイヤ___1
  6
CONTINUOUS
 62
     7
 10
37.773555000000002
 20
233.36035000000001
 30
0.0
 11
37.815584999999999
 21
232.55557999999999
 31
0.0
  0
LINE
  5
1CB
  8
_0-1_レイヤ___1
  6
CONTINUOUS
 62
     7
 10
37.815584999999999
 20
232.55557999999999
 30
0.0
 11
37.857615000000003
 21
231.7518399999999
 31
0.0
  0
LINE
  5
1CC
  8
_0-1_レイヤ___1
  6
CONTINUOUS
 62
     7
 10
37.857615000000003
 20
231.7518399999999
 30
0.0
 11
37.899990000000003
 21
230.94705999999999
 31
0.0
  0
LINE
  5
1CD
  8
_0-1_レイヤ___1
  6
CONTINUOUS
 62
     7
 10
37.899990000000003
 20
230.94705999999999
 30
0.0
 11
37.942709000000001
 21
230.14228999999989
 31
0.0
  0
LINE
  5
1CE
  8
_0-1_レイヤ___1
  6
CONTINUOUS
 62
     7
 10
37.942709000000001
 20
230.14228999999989
 30
0.0
 11
37.985084000000001
 21
229.38058000000001
 31
0.0
  0
LINE
  5
1CF
  8
_0-1_レイヤ___1
  6
CONTINUOUS
 62
     7
 10
37.985084000000001
 20
229.38058000000001
 30
0.0
 11
38.02711399999999
 21
228.57649000000001
 31
0.0
  0
LINE
  5
1D0
  8
_0-1_レイヤ___1
  6
CONTINUOUS
 62
     7
 10
38.02711399999999
 20
228.57649000000001
 30
0.0
 11
38.112208000000003
 21
227.85681
 31
0.0
  0
LINE
  5
1D1
  8
_0-1_レイヤ___1
  6
CONTINUOUS
 62
     7
 10
38.112208000000003
 20
227.85681
 30
0.0
 11
38.154582000000012
 21
227.09475999999989
 31
0.0
  0
LINE
  5
1D2
  8
_0-1_レイヤ___1
  6
CONTINUOUS
 62
     7
 10
38.154582000000012
 20
227.09475999999989
 30
0.0
 11
38.238643000000003
 21
226.3326999999999
 31
0.0
  0
LINE
  5
1D3
  8
_0-1_レイヤ___1
  6
CONTINUOUS
 62
     7
 10
38.238643000000003
 20
226.3326999999999
 30
0.0
 11
38.323735999999997
 21
225.61302000000001
 31
0.0
  0
LINE
  5
1D4
  8
_0-1_レイヤ___1
  6
CONTINUOUS
 62
     7
 10
38.323735999999997
 20
225.61302000000001
 30
0.0
 11
38.408141000000001
 21
224.89333999999991
 31
0.0
  0
LINE
  5
1D5
  8
_0-1_レイヤ___1
  6
CONTINUOUS
 62
     7
 10
38.408141000000001
 20
224.89333999999991
 30
0.0
 11
38.493234999999999
 21
224.21603999999991
 31
0.0
  0
LINE
  5
1D6
  8
_0-1_レイヤ___1
  6
CONTINUOUS
 62
     7
 10
38.493234999999999
 20
224.21603999999991
 30
0.0
 11
38.577295000000007
 21
223.4963599999999
 31
0.0
  0
LINE
  5
1D7
  8
_0-1_レイヤ___1
  6
CONTINUOUS
 62
     7
 10
38.577295000000007
 20
223.4963599999999
 30
0.0
 11
38.662389000000012
 21
222.81905
 31
0.0
  0
LINE
  5
1D8
  8
_0-1_レイヤ___1
  6
CONTINUOUS
 62
     7
 10
38.662389000000012
 20
222.81905
 30
0.0
 11
38.746794000000001
 21
222.1414
 31
0.0
  0
LINE
  5
1D9
  8
_0-1_レイヤ___1
  6
CONTINUOUS
 62
     7
 10
38.746794000000001
 20
222.1414
 30
0.0
 11
38.831887999999999
 21
221.50680999999989
 31
0.0
  0
LINE
  5
1DA
  8
_0-1_レイヤ___1
  6
CONTINUOUS
 62
     7
 10
38.831887999999999
 20
221.50680999999989
 30
0.0
 11
38.958322999999993
 21
220.82915999999989
 31
0.0
  0
LINE
  5
1DB
  8
_0-1_レイヤ___1
  6
CONTINUOUS
 62
     7
 10
38.958322999999993
 20
220.82915999999989
 30
0.0
 11
39.043417000000012
 21
220.19457999999989
 31
0.0
  0
LINE
  5
1DC
  8
_0-1_レイヤ___1
  6
CONTINUOUS
 62
     7
 10
39.043417000000012
 20
220.19457999999989
 30
0.0
 11
39.170541
 21
219.55930000000001
 31
0.0
  0
LINE
  5
1DD
  8
_0-1_レイヤ___1
  6
CONTINUOUS
 62
     7
 10
39.170541
 20
219.55930000000001
 30
0.0
 11
39.296976000000001
 21
218.9240199999999
 31
0.0
  0
LINE
  5
1DE
  8
_0-1_レイヤ___1
  6
CONTINUOUS
 62
     7
 10
39.296976000000001
 20
218.9240199999999
 30
0.0
 11
39.424100000000003
 21
218.33147
 31
0.0
  0
LINE
  5
1DF
  8
_0-1_レイヤ___1
  6
CONTINUOUS
 62
     7
 10
39.424100000000003
 20
218.33147
 30
0.0
 11
39.551568000000003
 21
217.69687999999999
 31
0.0
  0
LINE
  5
1E0
  8
_0-1_レイヤ___1
  6
CONTINUOUS
 62
     7
 10
39.551568000000003
 20
217.69687999999999
 30
0.0
 11
39.678002999999997
 21
217.10397999999989
 31
0.0
  0
LINE
  5
1E1
  8
_0-1_レイヤ___1
  6
CONTINUOUS
 62
     7
 10
39.678002999999997
 20
217.10397999999989
 30
0.0
 11
39.805126999999999
 21
216.51177000000001
 31
0.0
  0
LINE
  5
1E2
  8
_0-1_レイヤ___1
  6
CONTINUOUS
 62
     7
 10
39.805126999999999
 20
216.51177000000001
 30
0.0
 11
39.932251000000001
 21
215.96123999999989
 31
0.0
  0
LINE
  5
1E3
  8
_0-1_レイヤ___1
  6
CONTINUOUS
 62
     7
 10
39.932251000000001
 20
215.96123999999989
 30
0.0
 11
40.059719999999992
 21
215.36799999999999
 31
0.0
  0
LINE
  5
1E4
  8
_0-1_レイヤ___1
  6
CONTINUOUS
 62
     7
 10
40.059719999999992
 20
215.36799999999999
 30
0.0
 11
40.229219000000001
 21
214.81782000000001
 31
0.0
  0
LINE
  5
1E5
  8
_0-1_レイヤ___1
  6
CONTINUOUS
 62
     7
 10
40.229219000000001
 20
214.81782000000001
 30
0.0
 11
40.355309000000013
 21
214.26762999999991
 31
0.0
  0
LINE
  5
1E6
  8
_0-1_レイヤ___1
  6
CONTINUOUS
 62
     7
 10
40.355309000000013
 20
214.26762999999991
 30
0.0
 11
40.524807999999993
 21
213.7174499999999
 31
0.0
  0
LINE
  5
1E7
  8
_0-1_レイヤ___1
  6
CONTINUOUS
 62
     7
 10
40.524807999999993
 20
213.7174499999999
 30
0.0
 11
40.693961999999992
 21
213.16692999999989
 31
0.0
  0
LINE
  5
1E8
  8
_0-1_レイヤ___1
  6
CONTINUOUS
 62
     7
 10
40.693961999999992
 20
213.16692999999989
 30
0.0
 11
40.863461000000001
 21
212.65912
 31
0.0
  0
LINE
  5
1E9
  8
_0-1_レイヤ___1
  6
CONTINUOUS
 62
     7
 10
40.863461000000001
 20
212.65912
 30
0.0
 11
41.032615000000007
 21
212.15097
 31
0.0
  0
LINE
  5
1EA
  8
_0-1_レイヤ___1
  6
CONTINUOUS
 62
     7
 10
41.032615000000007
 20
212.15097
 30
0.0
 11
41.202457999999993
 21
211.64247
 31
0.0
  0
LINE
  5
1EB
  8
_0-1_レイヤ___1
  6
CONTINUOUS
 62
     7
 10
41.202457999999993
 20
211.64247
 30
0.0
 11
41.371611999999999
 21
211.1353499999999
 31
0.0
  0
LINE
  5
1EC
  8
_0-1_レイヤ___1
  6
CONTINUOUS
 62
     7
 10
41.371611999999999
 20
211.1353499999999
 30
0.0
 11
41.541111000000001
 21
210.6271999999999
 31
0.0
  0
LINE
  5
1ED
  8
_0-1_レイヤ___1
  6
CONTINUOUS
 62
     7
 10
41.541111000000001
 20
210.6271999999999
 30
0.0
 11
41.752294999999989
 21
210.16141999999991
 31
0.0
  0
LINE
  5
1EE
  8
_0-1_レイヤ___1
  6
CONTINUOUS
 62
     7
 10
41.752294999999989
 20
210.16141999999991
 30
0.0
 11
42.133322999999997
 21
209.18783999999999
 31
0.0
  0
LINE
  5
1EF
  8
_0-1_レイヤ___1
  6
CONTINUOUS
 62
     7
 10
42.133322999999997
 20
209.18783999999999
 30
0.0
 11
42.514351000000012
 21
208.2990099999999
 31
0.0
  0
LINE
  5
1F0
  8
_0-1_レイヤ___1
  6
CONTINUOUS
 62
     7
 10
42.514351000000012
 20
208.2990099999999
 30
0.0
 11
42.938096999999992
 21
207.40983
 31
0.0
  0
LINE
  5
1F1
  8
_0-1_レイヤ___1
  6
CONTINUOUS
 62
     7
 10
42.938096999999992
 20
207.40983
 30
0.0
 11
43.361154999999997
 21
206.56336999999991
 31
0.0
  0
LINE
  5
1F2
  8
_0-1_レイヤ___1
  6
CONTINUOUS
 62
     7
 10
43.361154999999997
 20
206.56336999999991
 30
0.0
 11
43.827275999999991
 21
205.71621999999999
 31
0.0
  0
LINE
  5
1F3
  8
_0-1_レイヤ___1
  6
CONTINUOUS
 62
     7
 10
43.827275999999991
 20
205.71621999999999
 30
0.0
 11
44.292363999999999
 21
204.9124799999999
 31
0.0
  0
LINE
  5
1F4
  8
_0-1_レイヤ___1
  6
CONTINUOUS
 62
     7
 10
44.292363999999999
 20
204.9124799999999
 30
0.0
 11
44.800516000000002
 21
204.15008
 31
0.0
  0
LINE
  5
1F5
  8
_0-1_レイヤ___1
  6
CONTINUOUS
 62
     7
 10
44.800516000000002
 20
204.15008
 30
0.0
 11
45.308323000000001
 21
203.43039999999999
 31
0.0
  0
LINE
  5
1F6
  8
_0-1_レイヤ___1
  6
CONTINUOUS
 62
     7
 10
45.308323000000001
 20
203.43039999999999
 30
0.0
 11
45.816819000000002
 21
202.71072000000001
 31
0.0
  0
LINE
  5
1F7
  8
_0-1_レイヤ___1
  6
CONTINUOUS
 62
     7
 10
45.816819000000002
 20
202.71072000000001
 30
0.0
 11
46.367001000000002
 21
201.99104
 31
0.0
  0
LINE
  5
1F8
  8
_0-1_レイヤ___1
  6
CONTINUOUS
 62
     7
 10
46.367001000000002
 20
201.99104
 30
0.0
 11
46.95955699999999
 21
201.35645
 31
0.0
  0
LINE
  5
1F9
  8
_0-1_レイヤ___1
  6
CONTINUOUS
 62
     7
 10
46.95955699999999
 20
201.35645
 30
0.0
 11
47.510428000000012
 21
200.67913999999999
 31
0.0
  0
LINE
  5
1FA
  8
_0-1_レイヤ___1
  6
CONTINUOUS
 62
     7
 10
47.510428000000012
 20
200.67913999999999
 30
0.0
 11
48.102640000000001
 21
200.08555000000001
 31
0.0
  0
LINE
  5
1FB
  8
_0-1_レイヤ___1
  6
CONTINUOUS
 62
     7
 10
48.102640000000001
 20
200.08555000000001
 30
0.0
 11
48.737226999999997
 21
199.45130999999989
 31
0.0
  0
LINE
  5
1FC
  8
_0-1_レイヤ___1
  6
CONTINUOUS
 62
     7
 10
48.737226999999997
 20
199.45130999999989
 30
0.0
 11
49.372846999999993
 21
198.90112999999991
 31
0.0
  0
LINE
  5
1FD
  8
_0-1_レイヤ___1
  6
CONTINUOUS
 62
     7
 10
49.372846999999993
 20
198.90112999999991
 30
0.0
 11
50.008122
 21
198.3075399999999
 31
0.0
  0
LINE
  5
1FE
  8
_0-1_レイヤ___1
  6
CONTINUOUS
 62
     7
 10
50.008122
 20
198.3075399999999
 30
0.0
 11
50.684738999999993
 21
197.80041999999989
 31
0.0
  0
LINE
  5
1FF
  8
_0-1_レイヤ___1
  6
CONTINUOUS
 62
     7
 10
50.684738999999993
 20
197.80041999999989
 30
0.0
 11
51.362045000000002
 21
197.2499
 31
0.0
  0
LINE
  5
200
  8
_0-1_レイヤ___1
  6
CONTINUOUS
 62
     7
 10
51.362045000000002
 20
197.2499
 30
0.0
 11
52.081725000000013
 21
196.74208999999999
 31
0.0
  0
LINE
  5
201
  8
_0-1_レイヤ___1
  6
CONTINUOUS
 62
     7
 10
52.081725000000013
 20
196.74208999999999
 30
0.0
 11
52.801406000000007
 21
196.27597
 31
0.0
  0
LINE
  5
202
  8
_0-1_レイヤ___1
  6
CONTINUOUS
 62
     7
 10
52.801406000000007
 20
196.27597
 30
0.0
 11
53.564149999999998
 21
195.80985000000001
 31
0.0
  0
LINE
  5
203
  8
_0-1_レイヤ___1
  6
CONTINUOUS
 62
     7
 10
53.564149999999998
 20
195.80985000000001
 30
0.0
 11
54.325860000000013
 21
195.3451
 31
0.0
  0
LINE
  5
204
  8
_0-1_レイヤ___1
  6
CONTINUOUS
 62
     7
 10
54.325860000000013
 20
195.3451
 30
0.0
 11
54.706888000000014
 21
195.13322999999991
 31
0.0
  0
LINE
  5
205
  8
_0-1_レイヤ___1
  6
CONTINUOUS
 62
     7
 10
54.706888000000014
 20
195.13322999999991
 30
0.0
 11
55.129601000000001
 21
194.92100999999991
 31
0.0
  0
LINE
  5
206
  8
_0-1_レイヤ___1
  6
CONTINUOUS
 62
     7
 10
55.129601000000001
 20
194.92100999999991
 30
0.0
 11
55.511318000000003
 21
194.66745
 31
0.0
  0
LINE
  5
207
  8
_0-1_レイヤ___1
  6
CONTINUOUS
 62
     7
 10
55.511318000000003
 20
194.66745
 30
0.0
 11
55.934376
 21
194.49795
 31
0.0
  0
LINE
  5
208
  8
_0-1_レイヤ___1
  6
CONTINUOUS
 62
     7
 10
55.934376
 20
194.49795
 30
0.0
 11
56.400497000000001
 21
194.2867699999999
 31
0.0
  0
LINE
  5
209
  8
_0-1_レイヤ___1
  6
CONTINUOUS
 62
     7
 10
56.400497000000001
 20
194.2867699999999
 30
0.0
 11
56.823549999999997
 21
194.07490000000001
 31
0.0
  0
LINE
  5
20A
  8
_0-1_レイヤ___1
  6
CONTINUOUS
 62
     7
 10
56.823549999999997
 20
194.07490000000001
 30
0.0
 11
57.289330000000007
 21
193.86268000000001
 31
0.0
  0
LINE
  5
20B
  8
_0-1_レイヤ___1
  6
CONTINUOUS
 62
     7
 10
57.289330000000007
 20
193.86268000000001
 30
0.0
 11
57.754760000000012
 21
193.69386999999989
 31
0.0
  0
LINE
  5
20C
  8
_0-1_レイヤ___1
  6
CONTINUOUS
 62
     7
 10
57.754760000000012
 20
193.69386999999989
 30
0.0
 11
58.262910000000012
 21
193.48165
 31
0.0
  0
LINE
  5
20D
  8
_0-1_レイヤ___1
  6
CONTINUOUS
 62
     7
 10
58.262910000000012
 20
193.48165
 30
0.0
 11
58.770719999999997
 21
193.31215
 31
0.0
  0
LINE
  5
20E
  8
_0-1_レイヤ___1
  6
CONTINUOUS
 62
     7
 10
58.770719999999997
 20
193.31215
 30
0.0
 11
59.321240000000003
 21
193.14299999999989
 31
0.0
  0
LINE
  5
20F
  8
_0-1_レイヤ___1
  6
CONTINUOUS
 62
     7
 10
59.321240000000003
 20
193.14299999999989
 30
0.0
 11
59.871429999999989
 21
192.9314699999999
 31
0.0
  0
LINE
  5
210
  8
_0-1_レイヤ___1
  6
CONTINUOUS
 62
     7
 10
59.871429999999989
 20
192.9314699999999
 30
0.0
 11
60.42125999999999
 21
192.76231000000001
 31
0.0
  0
LINE
  5
211
  8
_0-1_レイヤ___1
  6
CONTINUOUS
 62
     7
 10
60.42125999999999
 20
192.76231000000001
 30
0.0
 11
61.014159999999997
 21
192.59246999999991
 31
0.0
  0
LINE
  5
212
  8
_0-1_レイヤ___1
  6
CONTINUOUS
 62
     7
 10
61.014159999999997
 20
192.59246999999991
 30
0.0
 11
61.649439999999998
 21
192.4663799999999
 31
0.0
  0
LINE
  5
213
  8
_0-1_レイヤ___1
  6
CONTINUOUS
 62
     7
 10
61.649439999999998
 20
192.4663799999999
 30
0.0
 11
62.28472
 21
192.2968799999999
 31
0.0
  0
LINE
  5
214
  8
_0-1_レイヤ___1
  6
CONTINUOUS
 62
     7
 10
62.28472
 20
192.2968799999999
 30
0.0
 11
62.961329999999997
 21
192.12773000000001
 31
0.0
  0
LINE
  5
215
  8
_0-1_レイヤ___1
  6
CONTINUOUS
 62
     7
 10
62.961329999999997
 20
192.12773000000001
 30
0.0
 11
63.638640000000002
 21
192.00026
 31
0.0
  0
LINE
  5
216
  8
_0-1_レイヤ___1
  6
CONTINUOUS
 62
     7
 10
63.638640000000002
 20
192.00026
 30
0.0
 11
64.358320000000006
 21
191.83109999999991
 31
0.0
  0
LINE
  5
217
  8
_0-1_レイヤ___1
  6
CONTINUOUS
 62
     7
 10
64.358320000000006
 20
191.83109999999991
 30
0.0
 11
65.12106
 21
191.70364000000001
 31
0.0
  0
LINE
  5
218
  8
_0-1_レイヤ___1
  6
CONTINUOUS
 62
     7
 10
65.12106
 20
191.70364000000001
 30
0.0
 11
65.882769999999994
 21
191.5772
 31
0.0
  0
LINE
  5
219
  8
_0-1_レイヤ___1
  6
CONTINUOUS
 62
     7
 10
65.882769999999994
 20
191.5772
 30
0.0
 11
66.686859999999996
 21
191.45008000000001
 31
0.0
  0
LINE
  5
21A
  8
_0-1_レイヤ___1
  6
CONTINUOUS
 62
     7
 10
66.686859999999996
 20
191.45008000000001
 30
0.0
 11
67.533659999999983
 21
191.2805799999999
 31
0.0
  0
LINE
  5
21B
  8
_0-1_レイヤ___1
  6
CONTINUOUS
 62
     7
 10
67.533659999999983
 20
191.2805799999999
 30
0.0
 11
68.422839999999994
 21
191.19616999999991
 31
0.0
  0
LINE
  5
21C
  8
_0-1_レイヤ___1
  6
CONTINUOUS
 62
     7
 10
68.422839999999994
 20
191.19616999999991
 30
0.0
 11
69.353710000000007
 21
191.06939
 31
0.0
  0
LINE
  5
21D
  8
_0-1_レイヤ___1
  6
CONTINUOUS
 62
     7
 10
69.353710000000007
 20
191.06939
 30
0.0
 11
69.819829999999996
 21
190.98429999999999
 31
0.0
  0
LINE
  5
21E
  8
_0-1_レイヤ___1
  6
CONTINUOUS
 62
     7
 10
69.819829999999996
 20
190.98429999999999
 30
0.0
 11
70.285610000000005
 21
190.94193000000001
 31
0.0
  0
LINE
  5
21F
  8
_0-1_レイヤ___1
  6
CONTINUOUS
 62
     7
 10
70.285610000000005
 20
190.94193000000001
 30
0.0
 11
70.75069000000002
 21
190.8999
 31
0.0
  0
LINE
  5
220
  8
_0-1_レイヤ___1
  6
CONTINUOUS
 62
     7
 10
70.75069000000002
 20
190.8999
 30
0.0
 11
71.259190000000004
 21
190.85751999999991
 31
0.0
  0
LINE
  5
221
  8
_0-1_レイヤ___1
  6
CONTINUOUS
 62
     7
 10
71.259190000000004
 20
190.85751999999991
 30
0.0
 11
71.766999999999996
 21
190.77277000000001
 31
0.0
  0
LINE
  5
222
  8
_0-1_レイヤ___1
  6
CONTINUOUS
 62
     7
 10
71.766999999999996
 20
190.77277000000001
 30
0.0
 11
72.275149999999982
 21
190.73074
 31
0.0
  0
LINE
  5
223
  8
_0-1_レイヤ___1
  6
CONTINUOUS
 62
     7
 10
72.275149999999982
 20
190.73074
 30
0.0
 11
72.82532999999998
 21
190.68836999999991
 31
0.0
  0
LINE
  5
224
  8
_0-1_レイヤ___1
  6
CONTINUOUS
 62
     7
 10
72.82532999999998
 20
190.68836999999991
 30
0.0
 11
73.33347999999998
 21
190.64529999999991
 31
0.0
  0
LINE
  5
225
  8
_0-1_レイヤ___1
  6
CONTINUOUS
 62
     7
 10
73.33347999999998
 20
190.64529999999991
 30
0.0
 11
73.883660000000006
 21
190.60327000000001
 31
0.0
  0
LINE
  5
226
  8
_0-1_レイヤ___1
  6
CONTINUOUS
 62
     7
 10
73.883660000000006
 20
190.60327000000001
 30
0.0
 11
74.434190000000001
 21
190.51886999999999
 31
0.0
  0
LINE
  5
227
  8
_0-1_レイヤ___1
  6
CONTINUOUS
 62
     7
 10
74.434190000000001
 20
190.51886999999999
 30
0.0
 11
75.026399999999981
 21
190.47579999999991
 31
0.0
  0
LINE
  5
228
  8
_0-1_レイヤ___1
  6
CONTINUOUS
 62
     7
 10
75.026399999999981
 20
190.47579999999991
 30
0.0
 11
75.576580000000007
 21
190.43412000000001
 31
0.0
  0
LINE
  5
229
  8
_0-1_レイヤ___1
  6
CONTINUOUS
 62
     7
 10
75.576580000000007
 20
190.43412000000001
 30
0.0
 11
76.170169999999999
 21
190.39174
 31
0.0
  0
LINE
  5
22A
  8
_0-1_レイヤ___1
  6
CONTINUOUS
 62
     7
 10
76.170169999999999
 20
190.39174
 30
0.0
 11
76.762379999999965
 21
190.3497099999999
 31
0.0
  0
LINE
  5
22B
  8
_0-1_レイヤ___1
  6
CONTINUOUS
 62
     7
 10
76.762379999999965
 20
190.3497099999999
 30
0.0
 11
77.397660000000002
 21
190.30734000000001
 31
0.0
  0
LINE
  5
22C
  8
_0-1_レイヤ___1
  6
CONTINUOUS
 62
     7
 10
77.397660000000002
 20
190.30734000000001
 30
0.0
 11
77.990219999999979
 21
190.26462000000001
 31
0.0
  0
LINE
  5
22D
  8
_0-1_レイヤ___1
  6
CONTINUOUS
 62
     7
 10
77.990219999999979
 20
190.26462000000001
 30
0.0
 11
78.624799999999965
 21
190.22224
 31
0.0
  0
LINE
  5
22E
  8
_0-1_レイヤ___1
  6
CONTINUOUS
 62
     7
 10
78.624799999999965
 20
190.22224
 30
0.0
 11
79.260080000000002
 21
190.22224
 31
0.0
  0
LINE
  5
22F
  8
_0-1_レイヤ___1
  6
CONTINUOUS
 62
     7
 10
79.260080000000002
 20
190.22224
 30
0.0
 11
79.937380000000005
 21
190.1802099999999
 31
0.0
  0
LINE
  5
230
  8
_0-1_レイヤ___1
  6
CONTINUOUS
 62
     7
 10
79.937380000000005
 20
190.1802099999999
 30
0.0
 11
80.615039999999965
 21
190.13784000000001
 31
0.0
  0
LINE
  5
231
  8
_0-1_レイヤ___1
  6
CONTINUOUS
 62
     7
 10
80.615039999999965
 20
190.13784000000001
 30
0.0
 11
81.291650000000004
 21
190.09512000000001
 31
0.0
  0
LINE
  5
232
  8
_0-1_レイヤ___1
  6
CONTINUOUS
 62
     7
 10
81.291650000000004
 20
190.09512000000001
 30
0.0
 11
81.968959999999981
 21
190.05308999999991
 31
0.0
  0
LINE
  5
233
  8
_0-1_レイヤ___1
  6
CONTINUOUS
 62
     7
 10
81.968959999999981
 20
190.05308999999991
 30
0.0
 11
82.646609999999981
 21
190.05308999999991
 31
0.0
  0
LINE
  5
234
  8
_0-1_レイヤ___1
  6
CONTINUOUS
 62
     7
 10
82.646609999999981
 20
190.05308999999991
 30
0.0
 11
83.366290000000006
 21
190.0110599999999
 31
0.0
  0
LINE
  5
235
  8
_0-1_レイヤ___1
  6
CONTINUOUS
 62
     7
 10
83.366290000000006
 20
190.0110599999999
 30
0.0
 11
84.085620000000006
 21
189.96869000000001
 31
0.0
  0
LINE
  5
236
  8
_0-1_レイヤ___1
  6
CONTINUOUS
 62
     7
 10
84.085620000000006
 20
189.96869000000001
 30
0.0
 11
84.847679999999983
 21
189.96869000000001
 31
0.0
  0
LINE
  5
237
  8
_0-1_レイヤ___1
  6
CONTINUOUS
 62
     7
 10
84.847679999999983
 20
189.96869000000001
 30
0.0
 11
85.610080000000025
 21
189.92562000000001
 31
0.0
  0
LINE
  5
238
  8
_0-1_レイヤ___1
  6
CONTINUOUS
 62
     7
 10
85.610080000000025
 20
189.92562000000001
 30
0.0
 11
86.372129999999999
 21
189.88358999999991
 31
0.0
  0
LINE
  5
239
  8
_0-1_レイヤ___1
  6
CONTINUOUS
 62
     7
 10
86.372129999999999
 20
189.88358999999991
 30
0.0
 11
87.133839999999964
 21
189.88358999999991
 31
0.0
  0
LINE
  5
23A
  8
_0-1_レイヤ___1
  6
CONTINUOUS
 62
     7
 10
87.133839999999964
 20
189.88358999999991
 30
0.0
 11
87.938270000000003
 21
189.8415599999999
 31
0.0
  0
LINE
  5
23B
  8
_0-1_レイヤ___1
  6
CONTINUOUS
 62
     7
 10
87.938270000000003
 20
189.8415599999999
 30
0.0
 11
262.35140000000001
 21
189.8415599999999
 31
0.0
  0
LINE
  5
23C
  8
_0-1_レイヤ___1
  6
CONTINUOUS
 62
     7
 10
262.35140000000001
 20
189.8415599999999
 30
0.0
 11
263.11415
 21
189.88358999999991
 31
0.0
  0
LINE
  5
23D
  8
_0-1_レイヤ___1
  6
CONTINUOUS
 62
     7
 10
263.11415
 20
189.88358999999991
 30
0.0
 11
263.91789
 21
189.88358999999991
 31
0.0
  0
LINE
  5
23E
  8
_0-1_レイヤ___1
  6
CONTINUOUS
 62
     7
 10
263.91789
 20
189.88358999999991
 30
0.0
 11
264.67993999999987
 21
189.92562000000001
 31
0.0
  0
LINE
  5
23F
  8
_0-1_レイヤ___1
  6
CONTINUOUS
 62
     7
 10
264.67993999999987
 20
189.92562000000001
 30
0.0
 11
265.39996999999988
 21
189.96869000000001
 31
0.0
  0
LINE
  5
240
  8
_0-1_レイヤ___1
  6
CONTINUOUS
 62
     7
 10
265.39996999999988
 20
189.96869000000001
 30
0.0
 11
266.16201999999993
 21
189.96869000000001
 31
0.0
  0
LINE
  5
241
  8
_0-1_レイヤ___1
  6
CONTINUOUS
 62
     7
 10
266.16201999999993
 20
189.96869000000001
 30
0.0
 11
266.88170000000002
 21
190.0110599999999
 31
0.0
  0
LINE
  5
242
  8
_0-1_レイヤ___1
  6
CONTINUOUS
 62
     7
 10
266.88170000000002
 20
190.0110599999999
 30
0.0
 11
267.60104000000001
 21
190.05308999999991
 31
0.0
  0
LINE
  5
243
  8
_0-1_レイヤ___1
  6
CONTINUOUS
 62
     7
 10
267.60104000000001
 20
190.05308999999991
 30
0.0
 11
268.27868999999993
 21
190.05308999999991
 31
0.0
  0
LINE
  5
244
  8
_0-1_レイヤ___1
  6
CONTINUOUS
 62
     7
 10
268.27868999999993
 20
190.05308999999991
 30
0.0
 11
268.99837000000002
 21
190.09512000000001
 31
0.0
  0
LINE
  5
245
  8
_0-1_レイヤ___1
  6
CONTINUOUS
 62
     7
 10
268.99837000000002
 20
190.09512000000001
 30
0.0
 11
269.67567000000003
 21
190.13784000000001
 31
0.0
  0
LINE
  5
246
  8
_0-1_レイヤ___1
  6
CONTINUOUS
 62
     7
 10
269.67567000000003
 20
190.13784000000001
 30
0.0
 11
270.31060999999988
 21
190.1802099999999
 31
0.0
  0
LINE
  5
247
  8
_0-1_レイヤ___1
  6
CONTINUOUS
 62
     7
 10
270.31060999999988
 20
190.1802099999999
 30
0.0
 11
270.98791
 21
190.22224
 31
0.0
  0
LINE
  5
248
  8
_0-1_レイヤ___1
  6
CONTINUOUS
 62
     7
 10
270.98791
 20
190.22224
 30
0.0
 11
271.62319000000002
 21
190.22224
 31
0.0
  0
LINE
  5
249
  8
_0-1_レイヤ___1
  6
CONTINUOUS
 62
     7
 10
271.62319000000002
 20
190.22224
 30
0.0
 11
272.25776999999988
 21
190.26462000000001
 31
0.0
  0
LINE
  5
24A
  8
_0-1_レイヤ___1
  6
CONTINUOUS
 62
     7
 10
272.25776999999988
 20
190.26462000000001
 30
0.0
 11
272.84998999999999
 21
190.30734000000001
 31
0.0
  0
LINE
  5
24B
  8
_0-1_レイヤ___1
  6
CONTINUOUS
 62
     7
 10
272.84998999999999
 20
190.30734000000001
 30
0.0
 11
273.48561000000001
 21
190.3497099999999
 31
0.0
  0
LINE
  5
24C
  8
_0-1_レイヤ___1
  6
CONTINUOUS
 62
     7
 10
273.48561000000001
 20
190.3497099999999
 30
0.0
 11
274.07781999999992
 21
190.39174
 31
0.0
  0
LINE
  5
24D
  8
_0-1_レイヤ___1
  6
CONTINUOUS
 62
     7
 10
274.07781999999992
 20
190.39174
 30
0.0
 11
274.67106000000001
 21
190.43412000000001
 31
0.0
  0
LINE
  5
24E
  8
_0-1_レイヤ___1
  6
CONTINUOUS
 62
     7
 10
274.67106000000001
 20
190.43412000000001
 30
0.0
 11
275.22124000000002
 21
190.47579999999991
 31
0.0
  0
LINE
  5
24F
  8
_0-1_レイヤ___1
  6
CONTINUOUS
 62
     7
 10
275.22124000000002
 20
190.47579999999991
 30
0.0
 11
275.81380000000001
 21
190.51886999999999
 31
0.0
  0
LINE
  5
250
  8
_0-1_レイヤ___1
  6
CONTINUOUS
 62
     7
 10
275.81380000000001
 20
190.51886999999999
 30
0.0
 11
276.36398000000003
 21
190.60327000000001
 31
0.0
  0
LINE
  5
251
  8
_0-1_レイヤ___1
  6
CONTINUOUS
 62
     7
 10
276.36398000000003
 20
190.60327000000001
 30
0.0
 11
276.91451000000001
 21
190.64529999999991
 31
0.0
  0
LINE
  5
252
  8
_0-1_レイヤ___1
  6
CONTINUOUS
 62
     7
 10
276.91451000000001
 20
190.64529999999991
 30
0.0
 11
277.42232000000001
 21
190.68836999999991
 31
0.0
  0
LINE
  5
253
  8
_0-1_レイヤ___1
  6
CONTINUOUS
 62
     7
 10
277.42232000000001
 20
190.68836999999991
 30
0.0
 11
277.97284000000002
 21
190.73074
 31
0.0
  0
LINE
  5
254
  8
_0-1_レイヤ___1
  6
CONTINUOUS
 62
     7
 10
277.97284000000002
 20
190.73074
 30
0.0
 11
278.48065000000003
 21
190.77277000000001
 31
0.0
  0
LINE
  5
255
  8
_0-1_レイヤ___1
  6
CONTINUOUS
 62
     7
 10
278.48065000000003
 20
190.77277000000001
 30
0.0
 11
278.98880000000003
 21
190.85751999999991
 31
0.0
  0
LINE
  5
256
  8
_0-1_レイヤ___1
  6
CONTINUOUS
 62
     7
 10
278.98880000000003
 20
190.85751999999991
 30
0.0
 11
279.4973
 21
190.8999
 31
0.0
  0
LINE
  5
257
  8
_0-1_レイヤ___1
  6
CONTINUOUS
 62
     7
 10
279.4973
 20
190.8999
 30
0.0
 11
279.96204
 21
190.94193000000001
 31
0.0
  0
LINE
  5
258
  8
_0-1_レイヤ___1
  6
CONTINUOUS
 62
     7
 10
279.96204
 20
190.94193000000001
 30
0.0
 11
280.47054000000003
 21
190.98429999999999
 31
0.0
  0
LINE
  5
259
  8
_0-1_レイヤ___1
  6
CONTINUOUS
 62
     7
 10
280.47054000000003
 20
190.98429999999999
 30
0.0
 11
280.93596999999988
 21
191.06939
 31
0.0
  0
LINE
  5
25A
  8
_0-1_レイヤ___1
  6
CONTINUOUS
 62
     7
 10
280.93596999999988
 20
191.06939
 30
0.0
 11
281.82548999999989
 21
191.19616999999991
 31
0.0
  0
LINE
  5
25B
  8
_0-1_レイヤ___1
  6
CONTINUOUS
 62
     7
 10
281.82548999999989
 20
191.19616999999991
 30
0.0
 11
282.71397999999988
 21
191.2805799999999
 31
0.0
  0
LINE
  5
25C
  8
_0-1_レイヤ___1
  6
CONTINUOUS
 62
     7
 10
282.71397999999988
 20
191.2805799999999
 30
0.0
 11
283.56112999999999
 21
191.45008000000001
 31
0.0
  0
LINE
  5
25D
  8
_0-1_レイヤ___1
  6
CONTINUOUS
 62
     7
 10
283.56112999999999
 20
191.45008000000001
 30
0.0
 11
284.36522000000002
 21
191.5772
 31
0.0
  0
LINE
  5
25E
  8
_0-1_レイヤ___1
  6
CONTINUOUS
 62
     7
 10
284.36522000000002
 20
191.5772
 30
0.0
 11
285.12657999999988
 21
191.70364000000001
 31
0.0
  0
LINE
  5
25F
  8
_0-1_レイヤ___1
  6
CONTINUOUS
 62
     7
 10
285.12657999999988
 20
191.70364000000001
 30
0.0
 11
285.88932999999992
 21
191.83109999999991
 31
0.0
  0
LINE
  5
260
  8
_0-1_レイヤ___1
  6
CONTINUOUS
 62
     7
 10
285.88932999999992
 20
191.83109999999991
 30
0.0
 11
286.60901000000001
 21
192.00026
 31
0.0
  0
LINE
  5
261
  8
_0-1_レイヤ___1
  6
CONTINUOUS
 62
     7
 10
286.60901000000001
 20
192.00026
 30
0.0
 11
287.32868999999999
 21
192.12773000000001
 31
0.0
  0
LINE
  5
262
  8
_0-1_レイヤ___1
  6
CONTINUOUS
 62
     7
 10
287.32868999999999
 20
192.12773000000001
 30
0.0
 11
287.96327000000002
 21
192.2968799999999
 31
0.0
  0
LINE
  5
263
  8
_0-1_レイヤ___1
  6
CONTINUOUS
 62
     7
 10
287.96327000000002
 20
192.2968799999999
 30
0.0
 11
288.64057999999989
 21
192.4663799999999
 31
0.0
  0
LINE
  5
264
  8
_0-1_レイヤ___1
  6
CONTINUOUS
 62
     7
 10
288.64057999999989
 20
192.4663799999999
 30
0.0
 11
289.23383000000001
 21
192.59246999999991
 31
0.0
  0
LINE
  5
265
  8
_0-1_レイヤ___1
  6
CONTINUOUS
 62
     7
 10
289.23383000000001
 20
192.59246999999991
 30
0.0
 11
289.82637999999992
 21
192.76231000000001
 31
0.0
  0
LINE
  5
266
  8
_0-1_レイヤ___1
  6
CONTINUOUS
 62
     7
 10
289.82637999999992
 20
192.76231000000001
 30
0.0
 11
290.41894000000002
 21
192.9314699999999
 31
0.0
  0
LINE
  5
267
  8
_0-1_レイヤ___1
  6
CONTINUOUS
 62
     7
 10
290.41894000000002
 20
192.9314699999999
 30
0.0
 11
290.96911999999992
 21
193.14299999999989
 31
0.0
  0
LINE
  5
268
  8
_0-1_レイヤ___1
  6
CONTINUOUS
 62
     7
 10
290.96911999999992
 20
193.14299999999989
 30
0.0
 11
291.47726999999992
 21
193.31215
 31
0.0
  0
LINE
  5
269
  8
_0-1_レイヤ___1
  6
CONTINUOUS
 62
     7
 10
291.47726999999992
 20
193.31215
 30
0.0
 11
291.98507999999993
 21
193.48165
 31
0.0
  0
LINE
  5
26A
  8
_0-1_レイヤ___1
  6
CONTINUOUS
 62
     7
 10
291.98507999999993
 20
193.48165
 30
0.0
 11
292.49358000000001
 21
193.69386999999989
 31
0.0
  0
LINE
  5
26B
  8
_0-1_レイヤ___1
  6
CONTINUOUS
 62
     7
 10
292.49358000000001
 20
193.69386999999989
 30
0.0
 11
292.95832000000001
 21
193.86268000000001
 31
0.0
  0
LINE
  5
26C
  8
_0-1_レイヤ___1
  6
CONTINUOUS
 62
     7
 10
292.95832000000001
 20
193.86268000000001
 30
0.0
 11
293.42444
 21
194.07490000000001
 31
0.0
  0
LINE
  5
26D
  8
_0-1_レイヤ___1
  6
CONTINUOUS
 62
     7
 10
293.42444
 20
194.07490000000001
 30
0.0
 11
293.89055999999999
 21
194.2867699999999
 31
0.0
  0
LINE
  5
26E
  8
_0-1_レイヤ___1
  6
CONTINUOUS
 62
     7
 10
293.89055999999999
 20
194.2867699999999
 30
0.0
 11
294.31326999999987
 21
194.49795
 31
0.0
  0
LINE
  5
26F
  8
_0-1_レイヤ___1
  6
CONTINUOUS
 62
     7
 10
294.31326999999987
 20
194.49795
 30
0.0
 11
294.73633000000001
 21
194.66745
 31
0.0
  0
LINE
  5
270
  8
_0-1_レイヤ___1
  6
CONTINUOUS
 62
     7
 10
294.73633000000001
 20
194.66745
 30
0.0
 11
295.16041999999987
 21
194.92100999999991
 31
0.0
  0
LINE
  5
271
  8
_0-1_レイヤ___1
  6
CONTINUOUS
 62
     7
 10
295.16041999999987
 20
194.92100999999991
 30
0.0
 11
295.54111
 21
195.13322999999991
 31
0.0
  0
LINE
  5
272
  8
_0-1_レイヤ___1
  6
CONTINUOUS
 62
     7
 10
295.54111
 20
195.13322999999991
 30
0.0
 11
295.92212999999992
 21
195.3451
 31
0.0
  0
LINE
  5
273
  8
_0-1_レイヤ___1
  6
CONTINUOUS
 62
     7
 10
295.92212999999992
 20
195.3451
 30
0.0
 11
296.72690999999992
 21
195.80985000000001
 31
0.0
  0
LINE
  5
274
  8
_0-1_レイヤ___1
  6
CONTINUOUS
 62
     7
 10
296.72690999999992
 20
195.80985000000001
 30
0.0
 11
297.44623999999988
 21
196.27597
 31
0.0
  0
LINE
  5
275
  8
_0-1_レイヤ___1
  6
CONTINUOUS
 62
     7
 10
297.44623999999988
 20
196.27597
 30
0.0
 11
298.16627
 21
196.74208999999999
 31
0.0
  0
LINE
  5
276
  8
_0-1_レイヤ___1
  6
CONTINUOUS
 62
     7
 10
298.16627
 20
196.74208999999999
 30
0.0
 11
298.88560999999987
 21
197.2499
 31
0.0
  0
LINE
  5
277
  8
_0-1_レイヤ___1
  6
CONTINUOUS
 62
     7
 10
298.88560999999987
 20
197.2499
 30
0.0
 11
299.56290999999999
 21
197.80041999999989
 31
0.0
  0
LINE
  5
278
  8
_0-1_レイヤ___1
  6
CONTINUOUS
 62
     7
 10
299.56290999999999
 20
197.80041999999989
 30
0.0
 11
300.23952999999989
 21
198.3075399999999
 31
0.0
  0
LINE
  5
279
  8
_0-1_レイヤ___1
  6
CONTINUOUS
 62
     7
 10
300.23952999999989
 20
198.3075399999999
 30
0.0
 11
300.87515000000002
 21
198.90112999999991
 31
0.0
  0
LINE
  5
27A
  8
_0-1_レイヤ___1
  6
CONTINUOUS
 62
     7
 10
300.87515000000002
 20
198.90112999999991
 30
0.0
 11
301.51042000000001
 21
199.45130999999989
 31
0.0
  0
LINE
  5
27B
  8
_0-1_レイヤ___1
  6
CONTINUOUS
 62
     7
 10
301.51042000000001
 20
199.45130999999989
 30
0.0
 11
302.14501000000001
 21
200.08555000000001
 31
0.0
  0
LINE
  5
27C
  8
_0-1_レイヤ___1
  6
CONTINUOUS
 62
     7
 10
302.14501000000001
 20
200.08555000000001
 30
0.0
 11
302.73721999999992
 21
200.67913999999999
 31
0.0
  0
LINE
  5
27D
  8
_0-1_レイヤ___1
  6
CONTINUOUS
 62
     7
 10
302.73721999999992
 20
200.67913999999999
 30
0.0
 11
303.33080999999987
 21
201.35645
 31
0.0
  0
LINE
  5
27E
  8
_0-1_レイヤ___1
  6
CONTINUOUS
 62
     7
 10
303.33080999999987
 20
201.35645
 30
0.0
 11
303.88065
 21
201.99104
 31
0.0
  0
LINE
  5
27F
  8
_0-1_レイヤ___1
  6
CONTINUOUS
 62
     7
 10
303.88065
 20
201.99104
 30
0.0
 11
304.43117999999998
 21
202.71072000000001
 31
0.0
  0
LINE
  5
280
  8
_0-1_レイヤ___1
  6
CONTINUOUS
 62
     7
 10
304.43117999999998
 20
202.71072000000001
 30
0.0
 11
304.93932999999993
 21
203.43039999999999
 31
0.0
  0
LINE
  5
281
  8
_0-1_レイヤ___1
  6
CONTINUOUS
 62
     7
 10
304.93932999999993
 20
203.43039999999999
 30
0.0
 11
305.44747999999993
 21
204.15008
 31
0.0
  0
LINE
  5
282
  8
_0-1_レイヤ___1
  6
CONTINUOUS
 62
     7
 10
305.44747999999993
 20
204.15008
 30
0.0
 11
305.95562999999999
 21
204.9124799999999
 31
0.0
  0
LINE
  5
283
  8
_0-1_レイヤ___1
  6
CONTINUOUS
 62
     7
 10
305.95562999999999
 20
204.9124799999999
 30
0.0
 11
306.42072000000002
 21
205.71621999999999
 31
0.0
  0
LINE
  5
284
  8
_0-1_レイヤ___1
  6
CONTINUOUS
 62
     7
 10
306.42072000000002
 20
205.71621999999999
 30
0.0
 11
306.88683999999989
 21
206.56336999999991
 31
0.0
  0
LINE
  5
285
  8
_0-1_レイヤ___1
  6
CONTINUOUS
 62
     7
 10
306.88683999999989
 20
206.56336999999991
 30
0.0
 11
307.30954999999989
 21
207.40983
 31
0.0
  0
LINE
  5
286
  8
_0-1_レイヤ___1
  6
CONTINUOUS
 62
     7
 10
307.30954999999989
 20
207.40983
 30
0.0
 11
307.73329999999987
 21
208.2990099999999
 31
0.0
  0
LINE
  5
287
  8
_0-1_レイヤ___1
  6
CONTINUOUS
 62
     7
 10
307.73329999999987
 20
208.2990099999999
 30
0.0
 11
308.1567
 21
209.18783999999999
 31
0.0
  0
LINE
  5
288
  8
_0-1_レイヤ___1
  6
CONTINUOUS
 62
     7
 10
308.1567
 20
209.18783999999999
 30
0.0
 11
308.53737999999993
 21
210.16141999999991
 31
0.0
  0
LINE
  5
289
  8
_0-1_レイヤ___1
  6
CONTINUOUS
 62
     7
 10
308.53737999999993
 20
210.16141999999991
 30
0.0
 11
308.70688000000001
 21
210.6271999999999
 31
0.0
  0
LINE
  5
28A
  8
_0-1_レイヤ___1
  6
CONTINUOUS
 62
     7
 10
308.70688000000001
 20
210.6271999999999
 30
0.0
 11
308.87603999999988
 21
211.1353499999999
 31
0.0
  0
LINE
  5
28B
  8
_0-1_レイヤ___1
  6
CONTINUOUS
 62
     7
 10
308.87603999999988
 20
211.1353499999999
 30
0.0
 11
309.04588000000001
 21
211.64247
 31
0.0
  0
LINE
  5
28C
  8
_0-1_レイヤ___1
  6
CONTINUOUS
 62
     7
 10
309.04588000000001
 20
211.64247
 30
0.0
 11
309.25707
 21
212.15097
 31
0.0
  0
LINE
  5
28D
  8
_0-1_レイヤ___1
  6
CONTINUOUS
 62
     7
 10
309.25707
 20
212.15097
 30
0.0
 11
309.42622
 21
212.65912
 31
0.0
  0
LINE
  5
28E
  8
_0-1_レイヤ___1
  6
CONTINUOUS
 62
     7
 10
309.42622
 20
212.65912
 30
0.0
 11
309.55369000000002
 21
213.16692999999989
 31
0.0
  0
LINE
  5
28F
  8
_0-1_レイヤ___1
  6
CONTINUOUS
 62
     7
 10
309.55369000000002
 20
213.16692999999989
 30
0.0
 11
309.72318999999999
 21
213.7174499999999
 31
0.0
  0
LINE
  5
290
  8
_0-1_レイヤ___1
  6
CONTINUOUS
 62
     7
 10
309.72318999999999
 20
213.7174499999999
 30
0.0
 11
309.89233999999988
 21
214.26762999999991
 31
0.0
  0
LINE
  5
291
  8
_0-1_レイヤ___1
  6
CONTINUOUS
 62
     7
 10
309.89233999999988
 20
214.26762999999991
 30
0.0
 11
310.01877999999999
 21
214.81782000000001
 31
0.0
  0
LINE
  5
292
  8
_0-1_レイヤ___1
  6
CONTINUOUS
 62
     7
 10
310.01877999999999
 20
214.81782000000001
 30
0.0
 11
310.18826999999987
 21
215.36799999999999
 31
0.0
  0
LINE
  5
293
  8
_0-1_レイヤ___1
  6
CONTINUOUS
 62
     7
 10
310.18826999999987
 20
215.36799999999999
 30
0.0
 11
310.3153999999999
 21
215.96123999999989
 31
0.0
  0
LINE
  5
294
  8
_0-1_レイヤ___1
  6
CONTINUOUS
 62
     7
 10
310.3153999999999
 20
215.96123999999989
 30
0.0
 11
310.44287000000008
 21
216.51177000000001
 31
0.0
  0
LINE
  5
295
  8
_0-1_レイヤ___1
  6
CONTINUOUS
 62
     7
 10
310.44287000000008
 20
216.51177000000001
 30
0.0
 11
310.61201999999992
 21
217.10397999999989
 31
0.0
  0
LINE
  5
296
  8
_0-1_レイヤ___1
  6
CONTINUOUS
 62
     7
 10
310.61201999999992
 20
217.10397999999989
 30
0.0
 11
310.73845999999992
 21
217.69687999999999
 31
0.0
  0
LINE
  5
297
  8
_0-1_レイヤ___1
  6
CONTINUOUS
 62
     7
 10
310.73845999999992
 20
217.69687999999999
 30
0.0
 11
310.86558000000002
 21
218.33147
 31
0.0
  0
LINE
  5
298
  8
_0-1_レイヤ___1
  6
CONTINUOUS
 62
     7
 10
310.86558000000002
 20
218.33147
 30
0.0
 11
310.99304999999993
 21
218.9240199999999
 31
0.0
  0
LINE
  5
299
  8
_0-1_レイヤ___1
  6
CONTINUOUS
 62
     7
 10
310.99304999999993
 20
218.9240199999999
 30
0.0
 11
311.07745
 21
219.55930000000001
 31
0.0
  0
LINE
  5
29A
  8
_0-1_レイヤ___1
  6
CONTINUOUS
 62
     7
 10
311.07745
 20
219.55930000000001
 30
0.0
 11
311.20458000000002
 21
220.19457999999989
 31
0.0
  0
LINE
  5
29B
  8
_0-1_レイヤ___1
  6
CONTINUOUS
 62
     7
 10
311.20458000000002
 20
220.19457999999989
 30
0.0
 11
311.28933000000001
 21
220.82915999999989
 31
0.0
  0
LINE
  5
29C
  8
_0-1_レイヤ___1
  6
CONTINUOUS
 62
     7
 10
311.28933000000001
 20
220.82915999999989
 30
0.0
 11
311.41611
 21
221.50680999999989
 31
0.0
  0
LINE
  5
29D
  8
_0-1_レイヤ___1
  6
CONTINUOUS
 62
     7
 10
311.41611
 20
221.50680999999989
 30
0.0
 11
311.50119999999998
 21
222.1414
 31
0.0
  0
LINE
  5
29E
  8
_0-1_レイヤ___1
  6
CONTINUOUS
 62
     7
 10
311.50119999999998
 20
222.1414
 30
0.0
 11
311.62729000000002
 21
222.81905
 31
0.0
  0
LINE
  5
29F
  8
_0-1_レイヤ___1
  6
CONTINUOUS
 62
     7
 10
311.62729000000002
 20
222.81905
 30
0.0
 11
311.71273000000002
 21
223.4963599999999
 31
0.0
  0
LINE
  5
2A0
  8
_0-1_レイヤ___1
  6
CONTINUOUS
 62
     7
 10
311.71273000000002
 20
223.4963599999999
 30
0.0
 11
311.79678999999999
 21
224.21603999999991
 31
0.0
  0
LINE
  5
2A1
  8
_0-1_レイヤ___1
  6
CONTINUOUS
 62
     7
 10
311.79678999999999
 20
224.21603999999991
 30
0.0
 11
311.88222999999999
 21
224.89333999999991
 31
0.0
  0
LINE
  5
2A2
  8
_0-1_レイヤ___1
  6
CONTINUOUS
 62
     7
 10
311.88222999999999
 20
224.89333999999991
 30
0.0
 11
311.92390999999992
 21
225.61302000000001
 31
0.0
  0
LINE
  5
2A3
  8
_0-1_レイヤ___1
  6
CONTINUOUS
 62
     7
 10
311.92390999999992
 20
225.61302000000001
 30
0.0
 11
312.00900999999999
 21
226.3326999999999
 31
0.0
  0
LINE
  5
2A4
  8
_0-1_レイヤ___1
  6
CONTINUOUS
 62
     7
 10
312.00900999999999
 20
226.3326999999999
 30
0.0
 11
312.09340999999989
 21
227.09475999999989
 31
0.0
  0
LINE
  5
2A5
  8
_0-1_レイヤ___1
  6
CONTINUOUS
 62
     7
 10
312.09340999999989
 20
227.09475999999989
 30
0.0
 11
312.13578999999999
 21
227.85681
 31
0.0
  0
LINE
  5
2A6
  8
_0-1_レイヤ___1
  6
CONTINUOUS
 62
     7
 10
312.13578999999999
 20
227.85681
 30
0.0
 11
312.22088000000002
 21
228.57649000000001
 31
0.0
  0
LINE
  5
2A7
  8
_0-1_レイヤ___1
  6
CONTINUOUS
 62
     7
 10
312.22088000000002
 20
228.57649000000001
 30
0.0
 11
312.26290999999992
 21
229.38058000000001
 31
0.0
  0
LINE
  5
2A8
  8
_0-1_レイヤ___1
  6
CONTINUOUS
 62
     7
 10
312.26290999999992
 20
229.38058000000001
 30
0.0
 11
312.30493999999987
 21
230.14228999999989
 31
0.0
  0
LINE
  5
2A9
  8
_0-1_レイヤ___1
  6
CONTINUOUS
 62
     7
 10
312.30493999999987
 20
230.14228999999989
 30
0.0
 11
312.39004
 21
230.94705999999999
 31
0.0
  0
LINE
  5
2AA
  8
_0-1_レイヤ___1
  6
CONTINUOUS
 62
     7
 10
312.39004
 20
230.94705999999999
 30
0.0
 11
312.43207000000001
 21
231.7518399999999
 31
0.0
  0
LINE
  5
2AB
  8
_0-1_レイヤ___1
  6
CONTINUOUS
 62
     7
 10
312.43207000000001
 20
231.7518399999999
 30
0.0
 11
312.47444000000002
 21
232.55557999999999
 31
0.0
  0
LINE
  5
2AC
  8
_0-1_レイヤ___1
  6
CONTINUOUS
 62
     7
 10
312.47444000000002
 20
232.55557999999999
 30
0.0
 11
312.47444000000002
 21
233.36035000000001
 31
0.0
  0
LINE
  5
2AD
  8
_0-1_レイヤ___1
  6
CONTINUOUS
 62
     7
 10
312.47444000000002
 20
233.36035000000001
 30
0.0
 11
312.51647000000003
 21
234.20646999999991
 31
0.0
  0
LINE
  5
2AE
  8
_0-1_レイヤ___1
  6
CONTINUOUS
 62
     7
 10
312.51647000000003
 20
234.20646999999991
 30
0.0
 11
312.55953
 21
235.05327
 31
0.0
  0
LINE
  5
2AF
  8
_0-1_レイヤ___1
  6
CONTINUOUS
 62
     7
 10
312.55953
 20
235.05327
 30
0.0
 11
312.55953
 21
235.90042
 31
0.0
  0
LINE
  5
2B0
  8
_0-1_レイヤ___1
  6
CONTINUOUS
 62
     7
 10
312.55953
 20
235.90042
 30
0.0
 11
312.60190999999992
 21
236.78926000000001
 31
0.0
  0
LINE
  5
2B1
  8
_0-1_レイヤ___1
  6
CONTINUOUS
 62
     7
 10
312.60190999999992
 20
236.78926000000001
 30
0.0
 11
312.60190999999992
 21
239.4564499999999
 31
0.0
  0
LINE
  5
2B2
  8
_0-1_レイヤ___1
  6
CONTINUOUS
 62
     7
 10
312.60190999999992
 20
239.4564499999999
 30
0.0
 11
312.64393999999987
 21
240.38731000000001
 31
0.0
  0
LINE
  5
2B3
  8
_0-1_レイヤ___1
  6
CONTINUOUS
 62
     7
 10
312.64393999999987
 20
240.38731000000001
 30
0.0
 11
312.64393999999987
 21
340.20929999999993
 31
0.0
  0
LINE
  5
2B4
  8
_0-0_0
  6
CONTINUOUS
 62
     7
 10
312.64393999999987
 20
380.21427
 30
0.0
 11
315.64393999999999
 21
380.21427
 31
0.0
  0
LINE
  5
2B5
  8
_0-0_0
  6
CONTINUOUS
 62
     7
 10
176.64501000000001
 20
-155.13341
 30
0.0
 11
176.64501000000001
 21
-125.11905400000001
 31
0.0
  0
LINE
  5
2B6
  8
_0-0_0
  6
CONTINUOUS
 62
     7
 10
173.64501000000001
 20
-125.11905400000001
 30
0.0
 11
176.64501000000001
 21
-125.11905400000001
 31
0.0
  0
LINE
  5
2B7
  8
_0-0_0
  6
CONTINUOUS
 62
     7
 10
173.64501000000001
 20
-155.13341
 30
0.0
 11
173.64501000000001
 21
-125.11905400000001
 31
0.0
  0
LINE
  5
2B8
  8
_0-1_レイヤ___1
  6
CONTINUOUS
 62
     7
 10
465.60351000000003
 20
147.72607999999991
 30
0.0
 11
465.60351000000003
 21
152.72147000000001
 31
0.0
  0
LINE
  5
2B9
  8
_0-1_レイヤ___1
  6
CONTINUOUS
 62
     7
 10
443.72163999999992
 20
140.61403000000001
 30
0.0
 11
448.37459000000001
 21
142.13778999999991
 31
0.0
  0
LINE
  5
2BA
  8
_0-1_レイヤ___1
  6
CONTINUOUS
 62
     7
 10
465.60351000000003
 20
147.72607999999991
 30
0.0
 11
465.60351000000003
 21
152.72147000000001
 31
0.0
  0
LINE
  5
2BB
  8
_0-1_レイヤ___1
  6
CONTINUOUS
 62
     7
 10
408.66951999999992
 20
407.73811999999992
 30
0.0
 11
391.69346999999999
 21
407.73811999999992
 31
0.0
  0
LINE
  5
2BC
  8
_0-1_レイヤ___1
  6
CONTINUOUS
 62
     7
 10
391.69346999999999
 20
407.73811999999992
 30
0.0
 11
391.69346999999999
 21
383.09931
 31
0.0
  0
LINE
  5
2BD
  8
_0-1_レイヤ___1
  6
CONTINUOUS
 62
     7
 10
391.69346999999999
 20
-192.2535
 30
0.0
 11
423.69736999999998
 21
-192.2535
 31
0.0
  0
LINE
  5
2BE
  8
_0-1_レイヤ___1
  6
CONTINUOUS
 62
     7
 10
388.68797000000001
 20
90.406930000000003
 30
0.0
 11
388.68797000000001
 21
130.41206
 31
0.0
  0
LINE
  5
2BF
  8
_0-1_レイヤ___1
  6
CONTINUOUS
 62
     7
 10
388.68797000000001
 20
130.41206
 30
0.0
 11
391.69346999999999
 21
130.41206
 31
0.0
  0
LINE
  5
2C0
  8
_0-1_レイヤ___1
  6
CONTINUOUS
 62
     7
 10
388.68797000000001
 20
90.406930000000003
 30
0.0
 11
391.69346999999999
 21
90.406930000000003
 31
0.0
  0
LINE
  5
2C1
  8
_0-1_レイヤ___1
  6
CONTINUOUS
 62
     7
 10
391.69346999999999
 20
90.406930000000003
 30
0.0
 11
391.69346999999999
 21
-122.234008
 31
0.0
  0
LINE
  5
2C2
  8
_0-1_レイヤ___1
  6
CONTINUOUS
 62
     7
 10
388.68797000000001
 20
-122.234008
 30
0.0
 11
388.68797000000001
 21
-162.23913999999991
 31
0.0
  0
LINE
  5
2C3
  8
_0-1_レイヤ___1
  6
CONTINUOUS
 62
     7
 10
388.68797000000001
 20
-162.23913999999991
 30
0.0
 11
391.69346999999999
 21
-162.23913999999991
 31
0.0
  0
LINE
  5
2C4
  8
_0-1_レイヤ___1
  6
CONTINUOUS
 62
     7
 10
388.68797000000001
 20
-122.234008
 30
0.0
 11
391.69346999999999
 21
-122.234008
 31
0.0
  0
LINE
  5
2C5
  8
_0-1_レイヤ___1
  6
CONTINUOUS
 62
     7
 10
391.69346999999999
 20
-162.23913999999991
 30
0.0
 11
391.69346999999999
 21
-192.2535
 31
0.0
  0
LINE
  5
2C6
  8
_0-1_レイヤ___1
  6
CONTINUOUS
 62
     7
 10
388.68797000000001
 20
383.09931
 30
0.0
 11
388.68797000000001
 21
343.09433999999987
 31
0.0
  0
LINE
  5
2C7
  8
_0-1_レイヤ___1
  6
CONTINUOUS
 62
     7
 10
388.68797000000001
 20
343.09433999999987
 30
0.0
 11
391.69346999999999
 21
343.09433999999987
 31
0.0
  0
LINE
  5
2C8
  8
_0-1_レイヤ___1
  6
CONTINUOUS
 62
     7
 10
388.68797000000001
 20
383.09931
 30
0.0
 11
391.69346999999999
 21
383.09931
 31
0.0
  0
LINE
  5
2C9
  8
_0-1_レイヤ___1
  6
CONTINUOUS
 62
     7
 10
391.69346999999999
 20
343.09433999999987
 30
0.0
 11
391.69346999999999
 21
130.41206
 31
0.0
  0
LINE
  5
2CA
  8
_0-1_レイヤ___1
  6
CONTINUOUS
 62
     7
 10
462.64589999999993
 20
152.72147000000001
 30
0.0
 11
462.64589999999993
 21
162.75393
 31
0.0
  0
LINE
  5
2CB
  8
_0-1_レイヤ___1
  6
CONTINUOUS
 62
     7
 10
462.64589999999993
 20
162.75393
 30
0.0
 11
465.60351000000003
 21
162.75393
 31
0.0
  0
LINE
  5
2CC
  8
_0-1_レイヤ___1
  6
CONTINUOUS
 62
     7
 10
465.60351000000003
 20
152.72147000000001
 30
0.0
 11
462.64589999999993
 21
152.72147000000001
 31
0.0
  0
LINE
  5
2CD
  8
_0-1_レイヤ___1
  6
CONTINUOUS
 62
     7
 10
465.60351000000003
 20
162.75393
 30
0.0
 11
465.56355000000002
 21
169.27377000000001
 31
0.0
  0
LINE
  5
2CE
  8
_0-1_レイヤ___1
  6
CONTINUOUS
 62
     7
 10
465.56355000000002
 20
169.27377000000001
 30
0.0
 11
465.52289999999999
 21
172.53283999999991
 31
0.0
  0
LINE
  5
2CF
  8
_0-1_レイヤ___1
  6
CONTINUOUS
 62
     7
 10
465.52289999999999
 20
172.53283999999991
 30
0.0
 11
465.48225000000002
 21
175.8352999999999
 31
0.0
  0
LINE
  5
2D0
  8
_0-1_レイヤ___1
  6
CONTINUOUS
 62
     7
 10
465.48225000000002
 20
175.8352999999999
 30
0.0
 11
465.44159000000002
 21
179.0950499999999
 31
0.0
  0
LINE
  5
2D1
  8
_0-1_レイヤ___1
  6
CONTINUOUS
 62
     7
 10
465.44159000000002
 20
179.0950499999999
 30
0.0
 11
465.31205999999997
 21
182.35515000000001
 31
0.0
  0
LINE
  5
2D2
  8
_0-1_レイヤ___1
  6
CONTINUOUS
 62
     7
 10
465.31205999999997
 20
182.35515000000001
 30
0.0
 11
465.18252000000001
 21
185.61421000000001
 31
0.0
  0
LINE
  5
2D3
  8
_0-1_レイヤ___1
  6
CONTINUOUS
 62
     7
 10
465.18252000000001
 20
185.61421000000001
 30
0.0
 11
465.01198999999991
 21
188.91598999999991
 31
0.0
  0
LINE
  5
2D4
  8
_0-1_レイヤ___1
  6
CONTINUOUS
 62
     7
 10
465.01198999999991
 20
188.91598999999991
 30
0.0
 11
464.84215
 21
192.17643000000001
 31
0.0
  0
LINE
  5
2D5
  8
_0-1_レイヤ___1
  6
CONTINUOUS
 62
     7
 10
464.84215
 20
192.17643000000001
 30
0.0
 11
464.5906599999999
 21
195.43583000000001
 31
0.0
  0
LINE
  5
2D6
  8
_0-1_レイヤ___1
  6
CONTINUOUS
 62
     7
 10
464.5906599999999
 20
195.43583000000001
 30
0.0
 11
464.33951000000002
 21
198.6948899999999
 31
0.0
  0
LINE
  5
2D7
  8
_0-1_レイヤ___1
  6
CONTINUOUS
 62
     7
 10
464.33951000000002
 20
198.6948899999999
 30
0.0
 11
464.03978000000001
 21
201.95533
 31
0.0
  0
LINE
  5
2D8
  8
_0-1_レイヤ___1
  6
CONTINUOUS
 62
     7
 10
464.03978000000001
 20
201.95533
 30
0.0
 11
463.69940999999989
 21
205.21473
 31
0.0
  0
LINE
  5
2D9
  8
_0-1_レイヤ___1
  6
CONTINUOUS
 62
     7
 10
463.69940999999989
 20
205.21473
 30
0.0
 11
463.31837999999999
 21
208.43210999999991
 31
0.0
  0
LINE
  5
2DA
  8
_0-1_レイヤ___1
  6
CONTINUOUS
 62
     7
 10
463.31837999999999
 20
208.43210999999991
 30
0.0
 11
462.98592999999988
 21
211.69185999999991
 31
0.0
  0
LINE
  5
2DB
  8
_0-1_レイヤ___1
  6
CONTINUOUS
 62
     7
 10
462.98592999999988
 20
211.69185999999991
 30
0.0
 11
462.55667
 21
214.95160999999999
 31
0.0
  0
LINE
  5
2DC
  8
_0-1_レイヤ___1
  6
CONTINUOUS
 62
     7
 10
417.17855999999989
 20
395.29167999999999
 30
0.0
 11
414.63815
 21
393.72536000000002
 31
0.0
  0
LINE
  5
2DD
  8
_0-1_レイヤ___1
  6
CONTINUOUS
 62
     7
 10
411.92892999999998
 20
403.80105999999989
 30
0.0
 11
409.38920000000002
 21
402.23439999999999
 31
0.0
  0
LINE
  5
2DE
  8
_0-1_レイヤ___1
  6
CONTINUOUS
 62
     7
 10
409.38920000000002
 20
402.23439999999999
 30
0.0
 11
414.63815
 21
393.72536000000002
 31
0.0
  0
LINE
  5
2DF
  8
_0-1_レイヤ___1
  6
CONTINUOUS
 62
     7
 10
411.92892999999998
 20
403.80105999999989
 30
0.0
 11
411.16721999999999
 21
404.81632999999988
 31
0.0
  0
LINE
  5
2E0
  8
_0-1_レイヤ___1
  6
CONTINUOUS
 62
     7
 10
411.16721999999999
 20
404.81632999999988
 30
0.0
 11
410.36243999999999
 21
405.83262999999999
 31
0.0
  0
LINE
  5
2E1
  8
_0-1_レイヤ___1
  6
CONTINUOUS
 62
     7
 10
410.36243999999999
 20
405.83262999999999
 30
0.0
 11
409.93972999999988
 21
406.29876000000002
 31
0.0
  0
LINE
  5
2E2
  8
_0-1_レイヤ___1
  6
CONTINUOUS
 62
     7
 10
409.93972999999988
 20
406.29876000000002
 30
0.0
 11
409.55869999999999
 21
406.80605000000003
 31
0.0
  0
LINE
  5
2E3
  8
_0-1_レイヤ___1
  6
CONTINUOUS
 62
     7
 10
409.55869999999999
 20
406.80605000000003
 30
0.0
 11
409.13494999999989
 21
407.27199999999999
 31
0.0
  0
LINE
  5
2E4
  8
_0-1_レイヤ___1
  6
CONTINUOUS
 62
     7
 10
409.13494999999989
 20
407.27199999999999
 30
0.0
 11
408.66951999999992
 21
407.73811999999992
 31
0.0
  0
LINE
  5
2E5
  8
_0-1_レイヤ___1
  6
CONTINUOUS
 62
     7
 10
448.46382
 20
285.69112999999987
 30
0.0
 11
450.36860999999999
 21
275.86916000000002
 31
0.0
  0
LINE
  5
2E6
  8
_0-1_レイヤ___1
  6
CONTINUOUS
 62
     7
 10
450.36860999999999
 20
275.86916000000002
 30
0.0
 11
453.28556999999989
 21
276.41933999999992
 31
0.0
  0
LINE
  5
2E7
  8
_0-1_レイヤ___1
  6
CONTINUOUS
 62
     7
 10
448.46382
 20
285.69112999999987
 30
0.0
 11
451.43004999999999
 21
286.24097
 31
0.0
  0
LINE
  5
2E8
  8
_0-1_レイヤ___1
  6
CONTINUOUS
 62
     7
 10
451.43004999999999
 20
286.24097
 30
0.0
 11
450.74930000000001
 21
289.45834000000002
 31
0.0
  0
LINE
  5
2E9
  8
_0-1_レイヤ___1
  6
CONTINUOUS
 62
     7
 10
450.74930000000001
 20
289.45834000000002
 30
0.0
 11
450.06819999999999
 21
292.63333999999992
 31
0.0
  0
LINE
  5
2EA
  8
_0-1_レイヤ___1
  6
CONTINUOUS
 62
     7
 10
450.06819999999999
 20
292.63333999999992
 30
0.0
 11
449.39605999999998
 21
295.85072000000002
 31
0.0
  0
LINE
  5
2EB
  8
_0-1_レイヤ___1
  6
CONTINUOUS
 62
     7
 10
449.39605999999998
 20
295.85072000000002
 30
0.0
 11
448.67466000000002
 21
299.02605999999992
 31
0.0
  0
LINE
  5
2EC
  8
_0-1_レイヤ___1
  6
CONTINUOUS
 62
     7
 10
448.67466000000002
 20
299.02605999999992
 30
0.0
 11
447.95359999999999
 21
302.20037000000002
 31
0.0
  0
LINE
  5
2ED
  8
_0-1_レイヤ___1
  6
CONTINUOUS
 62
     7
 10
447.95359999999999
 20
302.20037000000002
 30
0.0
 11
447.19258000000002
 21
305.37536999999992
 31
0.0
  0
LINE
  5
2EE
  8
_0-1_レイヤ___1
  6
CONTINUOUS
 62
     7
 10
447.19258000000002
 20
305.37536999999992
 30
0.0
 11
446.43052
 21
308.55036999999987
 31
0.0
  0
LINE
  5
2EF
  8
_0-1_レイヤ___1
  6
CONTINUOUS
 62
     7
 10
446.43052
 20
308.55036999999987
 30
0.0
 11
445.62678
 21
311.72572000000002
 31
0.0
  0
LINE
  5
2F0
  8
_0-1_レイヤ___1
  6
CONTINUOUS
 62
     7
 10
445.62678
 20
311.72572000000002
 30
0.0
 11
444.82234999999997
 21
314.90071999999992
 31
0.0
  0
LINE
  5
2F1
  8
_0-1_レイヤ___1
  6
CONTINUOUS
 62
     7
 10
444.82234999999997
 20
314.90071999999992
 30
0.0
 11
444.01826999999997
 21
318.07571999999988
 31
0.0
  0
LINE
  5
2F2
  8
_0-1_レイヤ___1
  6
CONTINUOUS
 62
     7
 10
444.01826999999997
 20
318.07571999999988
 30
0.0
 11
443.17111999999992
 21
321.20800000000003
 31
0.0
  0
LINE
  5
2F3
  8
_0-1_レイヤ___1
  6
CONTINUOUS
 62
     7
 10
443.17111999999992
 20
321.20800000000003
 30
0.0
 11
442.36633999999992
 21
324.38299999999992
 31
0.0
  0
LINE
  5
2F4
  8
_0-1_レイヤ___1
  6
CONTINUOUS
 62
     7
 10
442.36633999999992
 20
324.38299999999992
 30
0.0
 11
441.47750999999988
 21
327.51596999999992
 31
0.0
  0
LINE
  5
2F5
  8
_0-1_レイヤ___1
  6
CONTINUOUS
 62
     7
 10
441.47750999999988
 20
327.51596999999992
 30
0.0
 11
440.63071000000002
 21
330.69130999999999
 31
0.0
  0
LINE
  5
2F6
  8
_0-1_レイヤ___1
  6
CONTINUOUS
 62
     7
 10
440.63071000000002
 20
330.69130999999999
 30
0.0
 11
439.74153000000001
 21
333.82324999999992
 31
0.0
  0
LINE
  5
2F7
  8
_0-1_レイヤ___1
  6
CONTINUOUS
 62
     7
 10
439.74153000000001
 20
333.82324999999992
 30
0.0
 11
438.85304000000002
 21
336.95621999999992
 31
0.0
  0
LINE
  5
2F8
  8
_0-1_レイヤ___1
  6
CONTINUOUS
 62
     7
 10
458.36709000000002
 20
224.47626
 30
0.0
 11
461.29232000000002
 21
224.85762999999989
 31
0.0
  0
LINE
  5
2F9
  8
_0-1_レイヤ___1
  6
CONTINUOUS
 62
     7
 10
462.55667
 20
214.95160999999999
 30
0.0
 11
459.59870999999998
 21
214.57057999999989
 31
0.0
  0
LINE
  5
2FA
  8
_0-1_レイヤ___1
  6
CONTINUOUS
 62
     7
 10
459.59870999999998
 20
214.57057999999989
 30
0.0
 11
458.36709000000002
 21
224.47626
 31
0.0
  0
LINE
  5
2FB
  8
_0-1_レイヤ___1
  6
CONTINUOUS
 62
     7
 10
461.29232000000002
 20
224.85762999999989
 30
0.0
 11
460.40141999999992
 21
231.33440999999999
 31
0.0
  0
LINE
  5
2FC
  8
_0-1_レイヤ___1
  6
CONTINUOUS
 62
     7
 10
460.40141999999992
 20
231.33440999999999
 30
0.0
 11
459.46917999999988
 21
237.76915999999991
 31
0.0
  0
LINE
  5
2FD
  8
_0-1_レイヤ___1
  6
CONTINUOUS
 62
     7
 10
459.46917999999988
 20
237.76915999999991
 30
0.0
 11
458.49662999999993
 21
244.2466299999999
 31
0.0
  0
LINE
  5
2FE
  8
_0-1_レイヤ___1
  6
CONTINUOUS
 62
     7
 10
458.49662999999993
 20
244.2466299999999
 30
0.0
 11
457.52442000000002
 21
250.68103999999991
 31
0.0
  0
LINE
  5
2FF
  8
_0-1_レイヤ___1
  6
CONTINUOUS
 62
     7
 10
457.52442000000002
 20
250.68103999999991
 30
0.0
 11
456.50295
 21
257.11579
 31
0.0
  0
LINE
  5
300
  8
_0-1_レイヤ___1
  6
CONTINUOUS
 62
     7
 10
456.50295
 20
257.11579
 30
0.0
 11
455.4900899999999
 21
263.54984999999999
 31
0.0
  0
LINE
  5
301
  8
_0-1_レイヤ___1
  6
CONTINUOUS
 62
     7
 10
455.4900899999999
 20
263.54984999999999
 30
0.0
 11
454.93921999999992
 21
266.76722000000001
 31
0.0
  0
LINE
  5
302
  8
_0-1_レイヤ___1
  6
CONTINUOUS
 62
     7
 10
454.93921999999992
 20
266.76722000000001
 30
0.0
 11
454.42831000000001
 21
269.98459999999989
 31
0.0
  0
LINE
  5
303
  8
_0-1_レイヤ___1
  6
CONTINUOUS
 62
     7
 10
454.42831000000001
 20
269.98459999999989
 30
0.0
 11
453.88537000000002
 21
273.20197000000002
 31
0.0
  0
LINE
  5
304
  8
_0-1_レイヤ___1
  6
CONTINUOUS
 62
     7
 10
453.88537000000002
 20
273.20197000000002
 30
0.0
 11
453.28556999999989
 21
276.41933999999992
 31
0.0
  0
LINE
  5
305
  8
_0-1_レイヤ___1
  6
CONTINUOUS
 62
     7
 10
433.13797
 20
345.71951000000001
 30
0.0
 11
435.97430999999989
 21
336.10975999999988
 31
0.0
  0
LINE
  5
306
  8
_0-1_レイヤ___1
  6
CONTINUOUS
 62
     7
 10
435.97430999999989
 20
336.10975999999988
 30
0.0
 11
438.85304000000002
 21
336.95621999999992
 31
0.0
  0
LINE
  5
307
  8
_0-1_レイヤ___1
  6
CONTINUOUS
 62
     7
 10
433.13797
 20
345.71951000000001
 30
0.0
 11
436.01738
 21
346.56596999999988
 31
0.0
  0
LINE
  5
308
  8
_0-1_レイヤ___1
  6
CONTINUOUS
 62
     7
 10
436.01738
 20
346.56596999999988
 30
0.0
 11
435.04275999999987
 21
349.69824999999992
 31
0.0
  0
LINE
  5
309
  8
_0-1_レイヤ___1
  6
CONTINUOUS
 62
     7
 10
435.04275999999987
 20
349.69824999999992
 30
0.0
 11
434.06986999999992
 21
352.78919000000002
 31
0.0
  0
LINE
  5
30A
  8
_0-1_レイヤ___1
  6
CONTINUOUS
 62
     7
 10
434.06986999999992
 20
352.78919000000002
 30
0.0
 11
433.05355999999989
 21
355.92129999999992
 31
0.0
  0
LINE
  5
30B
  8
_0-1_レイヤ___1
  6
CONTINUOUS
 62
     7
 10
433.05355999999989
 20
355.92129999999992
 30
0.0
 11
432.03725999999989
 21
359.01206000000002
 31
0.0
  0
LINE
  5
30C
  8
_0-1_レイヤ___1
  6
CONTINUOUS
 62
     7
 10
432.03725999999989
 20
359.01206000000002
 30
0.0
 11
430.97892999999999
 21
362.10196999999999
 31
0.0
  0
LINE
  5
30D
  8
_0-1_レイヤ___1
  6
CONTINUOUS
 62
     7
 10
430.97892999999999
 20
362.10196999999999
 30
0.0
 11
429.92059
 21
365.19308000000001
 31
0.0
  0
LINE
  5
30E
  8
_0-1_レイヤ___1
  6
CONTINUOUS
 62
     7
 10
429.92059
 20
365.19308000000001
 30
0.0
 11
429.37007
 21
366.75870999999989
 31
0.0
  0
LINE
  5
30F
  8
_0-1_レイヤ___1
  6
CONTINUOUS
 62
     7
 10
429.37007
 20
366.75870999999989
 30
0.0
 11
428.8198799999999
 21
368.28298999999993
 31
0.0
  0
LINE
  5
310
  8
_0-1_レイヤ___1
  6
CONTINUOUS
 62
     7
 10
428.8198799999999
 20
368.28298999999993
 30
0.0
 11
428.26969999999989
 21
369.80658
 31
0.0
  0
LINE
  5
311
  8
_0-1_レイヤ___1
  6
CONTINUOUS
 62
     7
 10
428.26969999999989
 20
369.80658
 30
0.0
 11
427.67748999999992
 21
371.37306999999993
 31
0.0
  0
LINE
  5
312
  8
_0-1_レイヤ___1
  6
CONTINUOUS
 62
     7
 10
427.67748999999992
 20
371.37306999999993
 30
0.0
 11
427.12731000000002
 21
372.89735000000002
 31
0.0
  0
LINE
  5
313
  8
_0-1_レイヤ___1
  6
CONTINUOUS
 62
     7
 10
427.12731000000002
 20
372.89735000000002
 30
0.0
 11
426.53372000000002
 21
374.42093999999992
 31
0.0
  0
LINE
  5
314
  8
_0-1_レイヤ___1
  6
CONTINUOUS
 62
     7
 10
426.53372000000002
 20
374.42093999999992
 30
0.0
 11
425.94150999999999
 21
375.94540000000001
 31
0.0
  0
LINE
  5
315
  8
_0-1_レイヤ___1
  6
CONTINUOUS
 62
     7
 10
425.94150999999999
 20
375.94540000000001
 30
0.0
 11
425.34930000000003
 21
377.46967999999998
 31
0.0
  0
LINE
  5
316
  8
_0-1_レイヤ___1
  6
CONTINUOUS
 62
     7
 10
425.34930000000003
 20
377.46967999999998
 30
0.0
 11
424.71402
 21
378.99293
 31
0.0
  0
LINE
  5
317
  8
_0-1_レイヤ___1
  6
CONTINUOUS
 62
     7
 10
424.71402
 20
378.99293
 30
0.0
 11
424.12112000000002
 21
380.47465999999991
 31
0.0
  0
LINE
  5
318
  8
_0-1_レイヤ___1
  6
CONTINUOUS
 62
     7
 10
424.12112000000002
 20
380.47465999999991
 30
0.0
 11
423.48584
 21
381.99912
 31
0.0
  0
LINE
  5
319
  8
_0-1_レイヤ___1
  6
CONTINUOUS
 62
     7
 10
423.48584
 20
381.99912
 30
0.0
 11
422.85159999999991
 21
383.52339999999992
 31
0.0
  0
LINE
  5
31A
  8
_0-1_レイヤ___1
  6
CONTINUOUS
 62
     7
 10
422.85159999999991
 20
383.52339999999992
 30
0.0
 11
422.17394999999988
 21
385.00461999999987
 31
0.0
  0
LINE
  5
31B
  8
_0-1_レイヤ___1
  6
CONTINUOUS
 62
     7
 10
422.17394999999988
 20
385.00461999999987
 30
0.0
 11
421.4966399999999
 21
386.48601000000002
 31
0.0
  0
LINE
  5
31C
  8
_0-1_レイヤ___1
  6
CONTINUOUS
 62
     7
 10
421.4966399999999
 20
386.48601000000002
 30
0.0
 11
420.81898999999993
 21
387.96843999999999
 31
0.0
  0
LINE
  5
31D
  8
_0-1_レイヤ___1
  6
CONTINUOUS
 62
     7
 10
420.81898999999993
 20
387.96843999999999
 30
0.0
 11
420.1413399999999
 21
389.44965999999999
 31
0.0
  0
LINE
  5
31E
  8
_0-1_レイヤ___1
  6
CONTINUOUS
 62
     7
 10
420.1413399999999
 20
389.44965999999999
 30
0.0
 11
419.42200999999989
 21
390.93105000000003
 31
0.0
  0
LINE
  5
31F
  8
_0-1_レイヤ___1
  6
CONTINUOUS
 62
     7
 10
419.42200999999989
 20
390.93105000000003
 30
0.0
 11
418.7023299999999
 21
392.41329999999988
 31
0.0
  0
LINE
  5
320
  8
_0-1_レイヤ___1
  6
CONTINUOUS
 62
     7
 10
418.7023299999999
 20
392.41329999999988
 30
0.0
 11
417.94062000000002
 21
393.85230999999987
 31
0.0
  0
LINE
  5
321
  8
_0-1_レイヤ___1
  6
CONTINUOUS
 62
     7
 10
417.94062000000002
 20
393.85230999999987
 30
0.0
 11
417.17855999999989
 21
395.29167999999999
 31
0.0
  0
LINE
  5
322
  8
_0-1_レイヤ___1
  6
CONTINUOUS
 62
     7
 10
420.98849000000001
 20
-187.08793
 30
0.0
 11
421.58071000000001
 21
-177.09714999999991
 31
0.0
  0
LINE
  5
323
  8
_0-1_レイヤ___1
  6
CONTINUOUS
 62
     7
 10
421.58071000000001
 20
-177.09714999999991
 30
0.0
 11
424.58654999999987
 21
-177.26664999999991
 31
0.0
  0
LINE
  5
324
  8
_0-1_レイヤ___1
  6
CONTINUOUS
 62
     7
 10
423.99434000000002
 20
-187.25742
 30
0.0
 11
420.98849000000001
 21
-187.08793
 31
0.0
  0
LINE
  5
325
  8
_0-1_レイヤ___1
  6
CONTINUOUS
 62
     7
 10
430.38636999999989
 20
-30.83562499999999
 30
0.0
 11
430.97892999999999
 21
-20.845537100000001
 31
0.0
  0
LINE
  5
326
  8
_0-1_レイヤ___1
  6
CONTINUOUS
 62
     7
 10
430.97892999999999
 20
-20.845537100000001
 30
0.0
 11
433.98442999999997
 21
-21.015035099999999
 31
0.0
  0
LINE
  5
327
  8
_0-1_レイヤ___1
  6
CONTINUOUS
 62
     7
 10
433.3922199999999
 20
-31.005123000000001
 30
0.0
 11
430.38636999999989
 21
-30.83562499999999
 31
0.0
  0
LINE
  5
328
  8
_0-1_レイヤ___1
  6
CONTINUOUS
 62
     7
 10
439.78458999999998
 20
125.41598999999989
 30
0.0
 11
440.41917999999993
 21
135.40745000000001
 31
0.0
  0
LINE
  5
329
  8
_0-1_レイヤ___1
  6
CONTINUOUS
 62
     7
 10
440.41917999999993
 20
135.40745000000001
 30
0.0
 11
443.42468000000002
 21
135.1948899999999
 31
0.0
  0
LINE
  5
32A
  8
_0-1_レイヤ___1
  6
CONTINUOUS
 62
     7
 10
442.79009000000002
 20
125.24751999999989
 30
0.0
 11
439.78458999999998
 21
125.41598999999989
 31
0.0
  0
LINE
  5
32B
  8
_0-1_レイヤ___1
  6
CONTINUOUS
 62
     7
 10
443.42468000000002
 20
135.1948899999999
 30
0.0
 11
443.72163999999992
 21
140.61403000000001
 31
0.0
  0
LINE
  5
32C
  8
_0-1_レイヤ___1
  6
CONTINUOUS
 62
     7
 10
433.98442999999997
 20
-21.015035099999999
 30
0.0
 11
442.79009000000002
 21
125.24751999999989
 31
0.0
  0
LINE
  5
32D
  8
_0-1_レイヤ___1
  6
CONTINUOUS
 62
     7
 10
424.58654999999987
 20
-177.26664999999991
 30
0.0
 11
433.3922199999999
 21
-31.005123000000001
 31
0.0
  0
LINE
  5
32E
  8
_0-1_レイヤ___1
  6
CONTINUOUS
 62
     7
 10
423.99434000000002
 20
-187.25742
 30
0.0
 11
423.69736999999998
 21
-192.2535
 31
0.0
  0
LINE
  5
32F
  8
_0-1_レイヤ___1
  6
CONTINUOUS
 62
     7
 10
404.56330999999989
 20
131.04664999999989
 30
0.0
 11
395.03796999999992
 21
127.9567399999999
 31
0.0
  0
LINE
  5
330
  8
_0-1_レイヤ___1
  6
CONTINUOUS
 62
     7
 10
395.03796999999992
 20
127.9567399999999
 30
0.0
 11
395.96917999999988
 21
125.1203999999999
 31
0.0
  0
LINE
  5
331
  8
_0-1_レイヤ___1
  6
CONTINUOUS
 62
     7
 10
405.49452000000002
 20
128.21029999999999
 30
0.0
 11
404.56330999999989
 21
131.04664999999989
 31
0.0
  0
LINE
  5
332
  8
_0-1_レイヤ___1
  6
CONTINUOUS
 62
     7
 10
448.37459000000001
 20
142.13778999999991
 30
0.0
 11
447.44682999999992
 21
144.97414000000001
 31
0.0
  0
LINE
  5
333
  8
_0-1_レイヤ___1
  6
CONTINUOUS
 62
     7
 10
447.44682999999992
 20
144.97414000000001
 30
0.0
 11
456.93290000000002
 21
148.06507999999999
 31
0.0
  0
LINE
  5
334
  8
_0-1_レイヤ___1
  6
CONTINUOUS
 62
     7
 10
456.93290000000002
 20
148.06507999999999
 30
0.0
 11
457.86444999999998
 21
145.22838999999991
 31
0.0
  0
LINE
  5
335
  8
_0-1_レイヤ___1
  6
CONTINUOUS
 62
     7
 10
457.86444999999998
 20
145.22838999999991
 30
0.0
 11
465.60351000000003
 21
147.72607999999991
 31
0.0
  0
LINE
  5
336
  8
_0-1_レイヤ___1
  6
CONTINUOUS
 62
     7
 10
405.49452000000002
 20
128.21029999999999
 30
0.0
 11
395.96917999999988
 21
125.1203999999999
 31
0.0
  0
LINE
  5
337
  8
_0-1_レイヤ___1
  6
CONTINUOUS
 62
     7
 10
412.02845000000002
 20
-202.09537
 30
0.0
 11
383.03005000000002
 21
-202.09537
 31
0.0
  0
LINE
  5
338
  8
_0-1_レイヤ___1
  6
CONTINUOUS
 62
     7
 10
383.03005000000002
 20
-202.09537
 30
0.0
 11
383.03005000000002
 21
-221.06130999999991
 31
0.0
  0
LINE
  5
339
  8
_0-1_レイヤ___1
  6
CONTINUOUS
 62
     7
 10
383.03005000000002
 20
-221.06130999999991
 30
0.0
 11
412.02845000000002
 21
-221.06130999999991
 31
0.0
  0
LINE
  5
33A
  8
_0-1_レイヤ___1
  6
CONTINUOUS
 62
     7
 10
412.02845000000002
 20
-221.06130999999991
 30
0.0
 11
412.02845000000002
 21
-202.09537
 31
0.0
  0
LINE
  5
33B
  8
_0-1_レイヤ___1
  6
CONTINUOUS
 62
     7
 10
412.02845000000002
 20
-202.09537
 30
0.0
 11
383.03005000000002
 21
-202.09537
 31
0.0
  0
LINE
  5
33C
  8
_0-1_レイヤ___1
  6
CONTINUOUS
 62
     7
 10
383.03005000000002
 20
-202.09537
 30
0.0
 11
383.03005000000002
 21
-221.06130999999991
 31
0.0
  0
LINE
  5
33D
  8
_0-1_レイヤ___1
  6
CONTINUOUS
 62
     7
 10
383.03005000000002
 20
-221.06130999999991
 30
0.0
 11
412.02845000000002
 21
-221.06130999999991
 31
0.0
  0
LINE
  5
33E
  8
_0-1_レイヤ___1
  6
CONTINUOUS
 62
     7
 10
412.02845000000002
 20
-221.06130999999991
 30
0.0
 11
412.02845000000002
 21
-202.09537
 31
0.0
  0
LINE
  5
33F
  8
_0-1_レイヤ___1
  6
CONTINUOUS
 62
     7
 10
433.09537999999992
 20
-194.11666
 30
0.0
 11
433.68691000000001
 21
-184.1265699999999
 31
0.0
  0
LINE
  5
340
  8
_0-1_レイヤ___1
  6
CONTINUOUS
 62
     7
 10
433.68691000000001
 20
-184.1265699999999
 30
0.0
 11
436.69378999999992
 21
-184.2960699999999
 31
0.0
  0
LINE
  5
341
  8
_0-1_レイヤ___1
  6
CONTINUOUS
 62
     7
 10
436.10192000000001
 20
-194.28684000000001
 30
0.0
 11
433.09537999999992
 21
-194.11666
 31
0.0
  0
LINE
  5
342
  8
_0-1_レイヤ___1
  6
CONTINUOUS
 62
     7
 10
442.49567000000002
 20
-37.8650442
 30
0.0
 11
443.08753999999988
 21
-27.873578299999998
 31
0.0
  0
LINE
  5
343
  8
_0-1_レイヤ___1
  6
CONTINUOUS
 62
     7
 10
443.08753999999988
 20
-27.873578299999998
 30
0.0
 11
446.09406999999999
 21
-28.085796299999998
 31
0.0
  0
LINE
  5
344
  8
_0-1_レイヤ___1
  6
CONTINUOUS
 62
     7
 10
445.50254999999993
 20
-38.034543200000002
 30
0.0
 11
442.49567000000002
 21
-37.8650442
 31
0.0
  0
LINE
  5
345
  8
_0-1_レイヤ___1
  6
CONTINUOUS
 62
     7
 10
451.88837999999998
 20
118.38760000000001
 30
0.0
 11
452.52882
 21
128.33635000000001
 31
0.0
  0
LINE
  5
346
  8
_0-1_レイヤ___1
  6
CONTINUOUS
 62
     7
 10
452.52882
 20
128.33635000000001
 30
0.0
 11
455.48644000000002
 21
128.16685000000001
 31
0.0
  0
LINE
  5
347
  8
_0-1_レイヤ___1
  6
CONTINUOUS
 62
     7
 10
454.89490999999992
 20
118.1760699999999
 30
0.0
 11
451.88837999999998
 21
118.38760000000001
 31
0.0
  0
LINE
  5
348
  8
_0-1_レイヤ___1
  6
CONTINUOUS
 62
     7
 10
474.70904000000002
 20
131.34184999999999
 30
0.0
 11
455.78649999999988
 21
133.16189
 31
0.0
  0
LINE
  5
349
  8
_0-1_レイヤ___1
  6
CONTINUOUS
 62
     7
 10
454.77364999999998
 20
-200.25582
 30
0.0
 11
455.06509999999997
 21
-195.42923999999991
 31
0.0
  0
LINE
  5
34A
  8
_0-1_レイヤ___1
  6
CONTINUOUS
 62
     7
 10
474.70904000000002
 20
131.34184999999999
 30
0.0
 11
474.70904000000002
 21
131.12962999999991
 31
0.0
  0
LINE
  5
34B
  8
_0-1_レイヤ___1
  6
CONTINUOUS
 62
     7
 10
455.78649999999988
 20
133.16189
 30
0.0
 11
455.48644000000002
 21
128.16685000000001
 31
0.0
  0
LINE
  5
34C
  8
_0-1_レイヤ___1
  6
CONTINUOUS
 62
     7
 10
435.80219
 20
-199.28153999999989
 30
0.0
 11
454.77364999999998
 21
-200.42531999999991
 31
0.0
  0
LINE
  5
34D
  8
_0-1_レイヤ___1
  6
CONTINUOUS
 62
     7
 10
454.77364999999998
 20
-200.42531999999991
 30
0.0
 11
454.77364999999998
 21
-200.25582
 31
0.0
  0
LINE
  5
34E
  8
_0-1_レイヤ___1
  6
CONTINUOUS
 62
     7
 10
435.80219
 20
-199.11203999999989
 30
0.0
 11
436.10192000000001
 21
-194.28684000000001
 31
0.0
  0
LINE
  5
34F
  8
_0-1_レイヤ___1
  6
CONTINUOUS
 62
     7
 10
436.10192000000001
 20
-194.28684000000001
 30
0.0
 11
435.80219
 21
-199.28153999999989
 31
0.0
  0
LINE
  5
350
  8
_0-1_レイヤ___1
  6
CONTINUOUS
 62
     7
 10
445.50254999999993
 20
-38.034543200000002
 30
0.0
 11
436.69378999999992
 21
-184.2960699999999
 31
0.0
  0
LINE
  5
351
  8
_0-1_レイヤ___1
  6
CONTINUOUS
 62
     7
 10
454.89490999999992
 20
118.1760699999999
 30
0.0
 11
446.09406999999999
 21
-28.085796299999998
 31
0.0
  0
LINE
  5
352
  8
_0-1_レイヤ___1
  6
CONTINUOUS
 62
     7
 10
458.66315999999989
 20
-185.64999
 30
0.0
 11
458.07164
 21
-195.59873999999991
 31
0.0
  0
LINE
  5
353
  8
_0-1_レイヤ___1
  6
CONTINUOUS
 62
     7
 10
458.07164
 20
-195.59873999999991
 30
0.0
 11
455.06509999999997
 21
-195.42923999999991
 31
0.0
  0
LINE
  5
354
  8
_0-1_レイヤ___1
  6
CONTINUOUS
 62
     7
 10
458.66315999999989
 20
-185.64999
 30
0.0
 11
455.65696999999989
 21
-185.43845999999991
 31
0.0
  0
LINE
  5
355
  8
_0-1_レイヤ___1
  6
CONTINUOUS
 62
     7
 10
464.46573000000001
 20
-39.17693719999999
 30
0.0
 11
467.47226999999998
 21
-39.388465199999999
 31
0.0
  0
LINE
  5
356
  8
_0-1_レイヤ___1
  6
CONTINUOUS
 62
     7
 10
465.05725999999999
 20
-29.228879299999999
 30
0.0
 11
468.06378999999993
 21
-29.397688299999999
 31
0.0
  0
LINE
  5
357
  8
_0-1_レイヤ___1
  6
CONTINUOUS
 62
     7
 10
468.06378999999993
 20
-29.397688299999999
 30
0.0
 11
467.47226999999998
 21
-39.388465199999999
 31
0.0
  0
LINE
  5
358
  8
_0-1_レイヤ___1
  6
CONTINUOUS
 62
     7
 10
473.85809999999992
 20
117.03299
 30
0.0
 11
476.86498
 21
116.86315
 31
0.0
  0
LINE
  5
359
  8
_0-1_レイヤ___1
  6
CONTINUOUS
 62
     7
 10
474.45789000000002
 20
127.02307999999989
 30
0.0
 11
477.45649999999989
 21
126.8539199999999
 31
0.0
  0
LINE
  5
35A
  8
_0-1_レイヤ___1
  6
CONTINUOUS
 62
     7
 10
477.45649999999989
 20
126.8539199999999
 30
0.0
 11
476.86498
 21
116.86315
 31
0.0
  0
LINE
  5
35B
  8
_0-1_レイヤ___1
  6
CONTINUOUS
 62
     7
 10
455.65696999999989
 20
-185.43845999999991
 30
0.0
 11
464.46573000000001
 21
-39.17693719999999
 31
0.0
  0
LINE
  5
35C
  8
_0-1_レイヤ___1
  6
CONTINUOUS
 62
     7
 10
465.05725999999999
 20
-29.228879299999999
 30
0.0
 11
473.85809999999992
 21
117.03299
 31
0.0
  0
LINE
  5
35D
  8
_0-1_レイヤ___1
  6
CONTINUOUS
 62
     7
 10
474.45789000000002
 20
127.02307999999989
 30
0.0
 11
474.70904000000002
 21
131.34184999999999
 31
0.0
  0
LINE
  5
35E
  8
_0-1_レイヤ___1
  6
CONTINUOUS
 62
     7
 10
368.52942999999988
 20
403.23916999999989
 30
0.0
 11
368.52942999999988
 21
388.25351999999992
 31
0.0
  0
LINE
  5
35F
  8
_0-1_レイヤ___1
  6
CONTINUOUS
 62
     7
 10
368.52942999999988
 20
388.25351999999992
 30
0.0
 11
351.55338
 21
388.25351999999992
 31
0.0
  0
LINE
  5
360
  8
_0-1_レイヤ___1
  6
CONTINUOUS
 62
     7
 10
351.55338
 20
388.25351999999992
 30
0.0
 11
351.55338
 21
403.23916999999989
 31
0.0
  0
LINE
  5
361
  8
_0-1_レイヤ___1
  6
CONTINUOUS
 62
     7
 10
351.55338
 20
403.23916999999989
 30
0.0
 11
368.52942999999988
 21
403.23916999999989
 31
0.0
  0
LINE
  5
362
  8
_0-1_レイヤ___1
  6
CONTINUOUS
 62
     7
 10
368.52942999999988
 20
403.23916999999989
 30
0.0
 11
368.52942999999988
 21
388.25351999999992
 31
0.0
  0
LINE
  5
363
  8
_0-1_レイヤ___1
  6
CONTINUOUS
 62
     7
 10
368.52942999999988
 20
388.25351999999992
 30
0.0
 11
351.55338
 21
388.25351999999992
 31
0.0
  0
LINE
  5
364
  8
_0-1_レイヤ___1
  6
CONTINUOUS
 62
     7
 10
351.55338
 20
388.25351999999992
 30
0.0
 11
351.55338
 21
403.23916999999989
 31
0.0
  0
LINE
  5
365
  8
_0-1_レイヤ___1
  6
CONTINUOUS
 62
     7
 10
351.55338
 20
403.23916999999989
 30
0.0
 11
368.52942999999988
 21
403.23916999999989
 31
0.0
  0
LINE
  5
366
  8
_0-1_レイヤ___1
  6
CONTINUOUS
 62
     7
 10
474.43968000000001
 20
140.8215099999999
 30
0.0
 11
474.43968000000001
 21
145.8169
 31
0.0
  0
LINE
  5
367
  8
_0-1_レイヤ___1
  6
CONTINUOUS
 62
     7
 10
474.39936999999992
 20
410.06209999999999
 30
0.0
 11
489.38346999999999
 21
410.01902999999987
 31
0.0
  0
LINE
  5
368
  8
_0-1_レイヤ___1
  6
CONTINUOUS
 62
     7
 10
489.38346999999999
 20
410.01902999999987
 30
0.0
 11
489.9346900000001
 21
407.56456999999989
 31
0.0
  0
LINE
  5
369
  8
_0-1_レイヤ___1
  6
CONTINUOUS
 62
     7
 10
489.9346900000001
 20
407.56456999999989
 30
0.0
 11
490.48556000000002
 21
405.1511099999999
 31
0.0
  0
LINE
  5
36A
  8
_0-1_レイヤ___1
  6
CONTINUOUS
 62
     7
 10
513.25764000000004
 20
140.8215099999999
 30
0.0
 11
498.35415999999992
 21
140.8215099999999
 31
0.0
  0
LINE
  5
36B
  8
_0-1_レイヤ___1
  6
CONTINUOUS
 62
     7
 10
471.43315000000001
 20
145.8169
 30
0.0
 11
471.43315000000001
 21
155.84935999999999
 31
0.0
  0
LINE
  5
36C
  8
_0-1_レイヤ___1
  6
CONTINUOUS
 62
     7
 10
471.43315000000001
 20
155.84935999999999
 30
0.0
 11
474.43968000000001
 21
155.84935999999999
 31
0.0
  0
LINE
  5
36D
  8
_0-1_レイヤ___1
  6
CONTINUOUS
 62
     7
 10
474.43968000000001
 20
145.8169
 30
0.0
 11
471.43315000000001
 21
145.8169
 31
0.0
  0
LINE
  5
36E
  8
_0-1_レイヤ___1
  6
CONTINUOUS
 62
     7
 10
474.39936999999992
 20
395.03304000000003
 30
0.0
 11
471.39249000000001
 21
395.03304000000003
 31
0.0
  0
LINE
  5
36F
  8
_0-1_レイヤ___1
  6
CONTINUOUS
 62
     7
 10
474.39936999999992
 20
405.02381999999989
 30
0.0
 11
471.39249000000001
 21
405.02381999999989
 31
0.0
  0
LINE
  5
370
  8
_0-1_レイヤ___1
  6
CONTINUOUS
 62
     7
 10
471.39249000000001
 20
405.02381999999989
 30
0.0
 11
471.39249000000001
 21
395.03304000000003
 31
0.0
  0
LINE
  5
371
  8
_0-1_レイヤ___1
  6
CONTINUOUS
 62
     7
 10
474.39936999999992
 20
410.06209999999999
 30
0.0
 11
474.39936999999992
 21
405.02381999999989
 31
0.0
  0
LINE
  5
372
  8
_0-1_レイヤ___1
  6
CONTINUOUS
 62
     7
 10
474.43968000000001
 20
270.44632999999999
 30
0.0
 11
471.43315000000001
 21
270.44632999999999
 31
0.0
  0
LINE
  5
373
  8
_0-1_レイヤ___1
  6
CONTINUOUS
 62
     7
 10
474.43968000000001
 20
280.43709999999987
 30
0.0
 11
471.43315000000001
 21
280.43709999999987
 31
0.0
  0
LINE
  5
374
  8
_0-1_レイヤ___1
  6
CONTINUOUS
 62
     7
 10
471.43315000000001
 20
280.43709999999987
 30
0.0
 11
471.43315000000001
 21
270.44632999999999
 31
0.0
  0
LINE
  5
375
  8
_0-1_レイヤ___1
  6
CONTINUOUS
 62
     7
 10
474.43968000000001
 20
270.44632999999999
 30
0.0
 11
474.43968000000001
 21
218.12187
 31
0.0
  0
LINE
  5
376
  8
_0-1_レイヤ___1
  6
CONTINUOUS
 62
     7
 10
474.43968000000001
 20
280.43709999999987
 30
0.0
 11
474.43968000000001
 21
332.76121000000001
 31
0.0
  0
LINE
  5
377
  8
_0-1_レイヤ___1
  6
CONTINUOUS
 62
     7
 10
471.43315000000001
 20
218.12187
 30
0.0
 11
471.43315000000001
 21
208.13144
 31
0.0
  0
LINE
  5
378
  8
_0-1_レイヤ___1
  6
CONTINUOUS
 62
     7
 10
471.43315000000001
 20
208.13144
 30
0.0
 11
474.43968000000001
 21
208.13144
 31
0.0
  0
LINE
  5
379
  8
_0-1_レイヤ___1
  6
CONTINUOUS
 62
     7
 10
471.43315000000001
 20
218.12187
 30
0.0
 11
474.43968000000001
 21
218.12187
 31
0.0
  0
LINE
  5
37A
  8
_0-1_レイヤ___1
  6
CONTINUOUS
 62
     7
 10
474.43968000000001
 20
208.13144
 30
0.0
 11
474.43968000000001
 21
155.84935999999999
 31
0.0
  0
LINE
  5
37B
  8
_0-1_レイヤ___1
  6
CONTINUOUS
 62
     7
 10
471.47379999999993
 20
342.75130000000001
 30
0.0
 11
471.47379999999993
 21
332.76121000000001
 31
0.0
  0
LINE
  5
37C
  8
_0-1_レイヤ___1
  6
CONTINUOUS
 62
     7
 10
471.47379999999993
 20
332.76121000000001
 30
0.0
 11
474.43968000000001
 21
332.76121000000001
 31
0.0
  0
LINE
  5
37D
  8
_0-1_レイヤ___1
  6
CONTINUOUS
 62
     7
 10
471.47379999999993
 20
342.75130000000001
 30
0.0
 11
474.43968000000001
 21
342.75130000000001
 31
0.0
  0
LINE
  5
37E
  8
_0-1_レイヤ___1
  6
CONTINUOUS
 62
     7
 10
474.43968000000001
 20
342.75130000000001
 30
0.0
 11
474.43968000000001
 21
395.03304000000003
 31
0.0
  0
LINE
  5
37F
  8
_0-1_レイヤ___1
  6
CONTINUOUS
 62
     7
 10
513.21732999999995
 20
155.84935999999999
 30
0.0
 11
516.18286999999998
 21
155.84935999999999
 31
0.0
  0
LINE
  5
380
  8
_0-1_レイヤ___1
  6
CONTINUOUS
 62
     7
 10
516.18286999999998
 20
155.84935999999999
 30
0.0
 11
516.18286999999998
 21
145.8169
 31
0.0
  0
LINE
  5
381
  8
_0-1_レイヤ___1
  6
CONTINUOUS
 62
     7
 10
516.18286999999998
 20
145.8169
 30
0.0
 11
513.21732999999995
 21
145.8169
 31
0.0
  0
LINE
  5
382
  8
_0-1_レイヤ___1
  6
CONTINUOUS
 62
     7
 10
512.53624000000002
 20
203.51674
 30
0.0
 11
515.54312000000004
 21
203.64420000000001
 31
0.0
  0
LINE
  5
383
  8
_0-1_レイヤ___1
  6
CONTINUOUS
 62
     7
 10
515.54312000000004
 20
203.64420000000001
 30
0.0
 11
515.08077999999989
 21
213.63463999999991
 31
0.0
  0
LINE
  5
384
  8
_0-1_レイヤ___1
  6
CONTINUOUS
 62
     7
 10
515.08077999999989
 20
213.63463999999991
 30
0.0
 11
512.03394000000003
 21
213.50819999999999
 31
0.0
  0
LINE
  5
385
  8
_0-1_レイヤ___1
  6
CONTINUOUS
 62
     7
 10
513.21732999999995
 20
145.8169
 30
0.0
 11
513.25764000000004
 21
140.8215099999999
 31
0.0
  0
LINE
  5
386
  8
_0-1_レイヤ___1
  6
CONTINUOUS
 62
     7
 10
512.53624000000002
 20
203.51674
 30
0.0
 11
512.79565000000002
 21
197.59048000000001
 31
0.0
  0
LINE
  5
387
  8
_0-1_レイヤ___1
  6
CONTINUOUS
 62
     7
 10
512.79565000000002
 20
197.59048000000001
 30
0.0
 11
512.91726000000006
 21
194.58464000000001
 31
0.0
  0
LINE
  5
388
  8
_0-1_レイヤ___1
  6
CONTINUOUS
 62
     7
 10
512.91726000000006
 20
194.58464000000001
 30
0.0
 11
513.00615000000005
 21
191.57912999999999
 31
0.0
  0
LINE
  5
389
  8
_0-1_レイヤ___1
  6
CONTINUOUS
 62
     7
 10
513.00615000000005
 20
191.57912999999999
 30
0.0
 11
513.08744999999999
 21
188.6160099999999
 31
0.0
  0
LINE
  5
38A
  8
_0-1_レイヤ___1
  6
CONTINUOUS
 62
     7
 10
513.08744999999999
 20
188.6160099999999
 30
0.0
 11
513.13602999999989
 21
185.6525399999999
 31
0.0
  0
LINE
  5
38B
  8
_0-1_レイヤ___1
  6
CONTINUOUS
 62
     7
 10
513.13602999999989
 20
185.6525399999999
 30
0.0
 11
513.17668000000003
 21
182.64668999999989
 31
0.0
  0
LINE
  5
38C
  8
_0-1_レイヤ___1
  6
CONTINUOUS
 62
     7
 10
513.17668000000003
 20
182.64668999999989
 30
0.0
 11
513.21732999999995
 21
179.68322000000001
 31
0.0
  0
LINE
  5
38D
  8
_0-1_レイヤ___1
  6
CONTINUOUS
 62
     7
 10
513.21732999999995
 20
179.68322000000001
 30
0.0
 11
513.25764000000004
 21
176.72043999999991
 31
0.0
  0
LINE
  5
38E
  8
_0-1_レイヤ___1
  6
CONTINUOUS
 62
     7
 10
513.25764000000004
 20
176.72043999999991
 30
0.0
 11
513.25764000000004
 21
167.78799000000001
 31
0.0
  0
LINE
  5
38F
  8
_0-1_レイヤ___1
  6
CONTINUOUS
 62
     7
 10
513.25764000000004
 20
167.78799000000001
 30
0.0
 11
513.21732999999995
 21
161.81868
 31
0.0
  0
LINE
  5
390
  8
_0-1_レイヤ___1
  6
CONTINUOUS
 62
     7
 10
513.21732999999995
 20
161.81868
 30
0.0
 11
513.21732999999995
 21
155.84935999999999
 31
0.0
  0
LINE
  5
391
  8
_0-1_レイヤ___1
  6
CONTINUOUS
 62
     7
 10
507.2928
 20
280.98728999999992
 30
0.0
 11
510.29968000000002
 21
281.24119000000002
 31
0.0
  0
LINE
  5
392
  8
_0-1_レイヤ___1
  6
CONTINUOUS
 62
     7
 10
510.29968000000002
 20
281.24119000000002
 30
0.0
 11
511.10203999999999
 21
271.29279000000002
 31
0.0
  0
LINE
  5
393
  8
_0-1_レイヤ___1
  6
CONTINUOUS
 62
     7
 10
511.10203999999999
 20
271.29279000000002
 30
0.0
 11
508.13582000000002
 21
271.03922999999992
 31
0.0
  0
LINE
  5
394
  8
_0-1_レイヤ___1
  6
CONTINUOUS
 62
     7
 10
508.13582000000002
 20
271.03922999999992
 30
0.0
 11
508.68669
 21
263.88479999999993
 31
0.0
  0
LINE
  5
395
  8
_0-1_レイヤ___1
  6
CONTINUOUS
 62
     7
 10
508.68669
 20
263.88479999999993
 30
0.0
 11
508.93817999999987
 21
260.28674000000001
 31
0.0
  0
LINE
  5
396
  8
_0-1_レイヤ___1
  6
CONTINUOUS
 62
     7
 10
508.93817999999987
 20
260.28674000000001
 30
0.0
 11
509.19758999999999
 21
256.6452799999999
 31
0.0
  0
LINE
  5
397
  8
_0-1_レイヤ___1
  6
CONTINUOUS
 62
     7
 10
509.19758999999999
 20
256.6452799999999
 30
0.0
 11
509.44873999999999
 21
253.04755999999989
 31
0.0
  0
LINE
  5
398
  8
_0-1_レイヤ___1
  6
CONTINUOUS
 62
     7
 10
509.44873999999999
 20
253.04755999999989
 30
0.0
 11
509.69988999999993
 21
249.44915999999989
 31
0.0
  0
LINE
  5
399
  8
_0-1_レイヤ___1
  6
CONTINUOUS
 62
     7
 10
509.69988999999993
 20
249.44915999999989
 30
0.0
 11
510.21044999999998
 21
242.29403999999991
 31
0.0
  0
LINE
  5
39A
  8
_0-1_レイヤ___1
  6
CONTINUOUS
 62
     7
 10
510.21044999999998
 20
242.29403999999991
 30
0.0
 11
510.72135999999989
 21
235.09827000000001
 31
0.0
  0
LINE
  5
39B
  8
_0-1_レイヤ___1
  6
CONTINUOUS
 62
     7
 10
510.72135999999989
 20
235.09827000000001
 30
0.0
 11
511.18299999999999
 21
227.90077999999991
 31
0.0
  0
LINE
  5
39C
  8
_0-1_レイヤ___1
  6
CONTINUOUS
 62
     7
 10
511.18299999999999
 20
227.90077999999991
 30
0.0
 11
511.60433999999992
 21
220.70432
 31
0.0
  0
LINE
  5
39D
  8
_0-1_レイヤ___1
  6
CONTINUOUS
 62
     7
 10
511.60433999999992
 20
220.70432
 30
0.0
 11
512.03394000000003
 21
213.50819999999999
 31
0.0
  0
LINE
  5
39E
  8
_0-1_レイヤ___1
  6
CONTINUOUS
 62
     7
 10
499.92649999999998
 20
348.25484
 30
0.0
 11
502.93302999999992
 21
348.63569999999987
 31
0.0
  0
LINE
  5
39F
  8
_0-1_レイヤ___1
  6
CONTINUOUS
 62
     7
 10
502.93302999999992
 20
348.63569999999987
 30
0.0
 11
504.15672999999992
 21
338.68747000000002
 31
0.0
  0
LINE
  5
3A0
  8
_0-1_レイヤ___1
  6
CONTINUOUS
 62
     7
 10
504.15672999999992
 20
338.68747000000002
 30
0.0
 11
501.19085000000001
 21
338.30644000000001
 31
0.0
  0
LINE
  5
3A1
  8
_0-1_レイヤ___1
  6
CONTINUOUS
 62
     7
 10
501.19085000000001
 20
338.30644000000001
 30
0.0
 11
502.04178999999988
 21
331.15235999999999
 31
0.0
  0
LINE
  5
3A2
  8
_0-1_レイヤ___1
  6
CONTINUOUS
 62
     7
 10
502.04178999999988
 20
331.15235999999999
 30
0.0
 11
502.88479999999993
 21
323.99826999999999
 31
0.0
  0
LINE
  5
3A3
  8
_0-1_レイヤ___1
  6
CONTINUOUS
 62
     7
 10
502.88479999999993
 20
323.99826999999999
 30
0.0
 11
503.69508999999999
 21
316.84417999999999
 31
0.0
  0
LINE
  5
3A4
  8
_0-1_レイヤ___1
  6
CONTINUOUS
 62
     7
 10
503.69508999999999
 20
316.84417999999999
 30
0.0
 11
504.49711000000002
 21
309.64668999999992
 31
0.0
  0
LINE
  5
3A5
  8
_0-1_レイヤ___1
  6
CONTINUOUS
 62
     7
 10
504.49711000000002
 20
309.64668999999992
 30
0.0
 11
505.21884999999992
 21
302.49295000000001
 31
0.0
  0
LINE
  5
3A6
  8
_0-1_レイヤ___1
  6
CONTINUOUS
 62
     7
 10
505.21884999999992
 20
302.49295000000001
 30
0.0
 11
505.93164000000002
 21
295.3385199999999
 31
0.0
  0
LINE
  5
3A7
  8
_0-1_レイヤ___1
  6
CONTINUOUS
 62
     7
 10
505.93164000000002
 20
295.3385199999999
 30
0.0
 11
506.65304999999989
 21
288.14136999999988
 31
0.0
  0
LINE
  5
3A8
  8
_0-1_レイヤ___1
  6
CONTINUOUS
 62
     7
 10
506.65304999999989
 20
288.14136999999988
 30
0.0
 11
507.2928
 21
280.98728999999992
 31
0.0
  0
LINE
  5
3A9
  8
_0-1_レイヤ___1
  6
CONTINUOUS
 62
     7
 10
493.36255999999997
 20
405.74349999999993
 30
0.0
 11
495.39654000000002
 21
395.9644199999999
 31
0.0
  0
LINE
  5
3AA
  8
_0-1_レイヤ___1
  6
CONTINUOUS
 62
     7
 10
495.39654000000002
 20
395.9644199999999
 30
0.0
 11
492.47097000000002
 21
395.37204000000003
 31
0.0
  0
LINE
  5
3AB
  8
_0-1_レイヤ___1
  6
CONTINUOUS
 62
     7
 10
490.48556000000002
 20
405.1511099999999
 30
0.0
 11
493.36255999999997
 21
405.74349999999993
 31
0.0
  0
LINE
  5
3AC
  8
_0-1_レイヤ___1
  6
CONTINUOUS
 62
     7
 10
492.47097000000002
 20
395.37204000000003
 30
0.0
 11
493.06249000000003
 21
392.40838999999988
 31
0.0
  0
LINE
  5
3AD
  8
_0-1_レイヤ___1
  6
CONTINUOUS
 62
     7
 10
493.06249000000003
 20
392.40838999999988
 30
0.0
 11
493.57305000000002
 21
389.48781000000002
 31
0.0
  0
LINE
  5
3AE
  8
_0-1_レイヤ___1
  6
CONTINUOUS
 62
     7
 10
493.57305000000002
 20
389.48781000000002
 30
0.0
 11
494.12427000000002
 21
386.56706000000003
 31
0.0
  0
LINE
  5
3AF
  8
_0-1_レイヤ___1
  6
CONTINUOUS
 62
     7
 10
494.12427000000002
 20
386.56706000000003
 30
0.0
 11
494.63483000000002
 21
383.60342000000003
 31
0.0
  0
LINE
  5
3B0
  8
_0-1_レイヤ___1
  6
CONTINUOUS
 62
     7
 10
494.63483000000002
 20
383.60342000000003
 30
0.0
 11
495.13747000000001
 21
380.68214999999992
 31
0.0
  0
LINE
  5
3B1
  8
_0-1_レイヤ___1
  6
CONTINUOUS
 62
     7
 10
495.13747000000001
 20
380.68214999999992
 30
0.0
 11
495.60703999999993
 21
377.76139999999992
 31
0.0
  0
LINE
  5
3B2
  8
_0-1_レイヤ___1
  6
CONTINUOUS
 62
     7
 10
495.60703999999993
 20
377.76139999999992
 30
0.0
 11
496.11759999999998
 21
374.79775000000001
 31
0.0
  0
LINE
  5
3B3
  8
_0-1_レイヤ___1
  6
CONTINUOUS
 62
     7
 10
496.11759999999998
 20
374.79775000000001
 30
0.0
 11
496.57992999999988
 21
371.87716999999998
 31
0.0
  0
LINE
  5
3B4
  8
_0-1_レイヤ___1
  6
CONTINUOUS
 62
     7
 10
496.57992999999988
 20
371.87716999999998
 30
0.0
 11
497.00091999999989
 21
368.91336000000001
 31
0.0
  0
LINE
  5
3B5
  8
_0-1_レイヤ___1
  6
CONTINUOUS
 62
     7
 10
497.00091999999989
 20
368.91336000000001
 30
0.0
 11
497.47118
 21
365.95075000000003
 31
0.0
  0
LINE
  5
3B6
  8
_0-1_レイヤ___1
  6
CONTINUOUS
 62
     7
 10
497.47118
 20
365.95075000000003
 30
0.0
 11
497.89251000000002
 21
362.9871
 31
0.0
  0
LINE
  5
3B7
  8
_0-1_レイヤ___1
  6
CONTINUOUS
 62
     7
 10
497.89251000000002
 20
362.9871
 30
0.0
 11
498.31419
 21
360.06652000000003
 31
0.0
  0
LINE
  5
3B8
  8
_0-1_レイヤ___1
  6
CONTINUOUS
 62
     7
 10
498.31419
 20
360.06652000000003
 30
0.0
 11
498.7351799999999
 21
357.14474000000001
 31
0.0
  0
LINE
  5
3B9
  8
_0-1_レイヤ___1
  6
CONTINUOUS
 62
     7
 10
498.7351799999999
 20
357.14474000000001
 30
0.0
 11
499.11621000000002
 21
354.18144000000001
 31
0.0
  0
LINE
  5
3BA
  8
_0-1_レイヤ___1
  6
CONTINUOUS
 62
     7
 10
499.11621000000002
 20
354.18144000000001
 30
0.0
 11
499.92649999999998
 21
348.25484
 31
0.0
  0
LINE
  5
3BB
  8
_0-1_レイヤ___1
  6
CONTINUOUS
 62
     7
 10
498.35415999999992
 20
140.8215099999999
 30
0.0
 11
498.35415999999992
 21
143.82736
 31
0.0
  0
LINE
  5
3BC
  8
_0-1_レイヤ___1
  6
CONTINUOUS
 62
     7
 10
488.37026999999989
 20
140.8215099999999
 30
0.0
 11
488.37026999999989
 21
143.82736
 31
0.0
  0
LINE
  5
3BD
  8
_0-1_レイヤ___1
  6
CONTINUOUS
 62
     7
 10
488.37026999999989
 20
143.82736
 30
0.0
 11
498.35415999999992
 21
143.82736
 31
0.0
  0
LINE
  5
3BE
  8
_0-1_レイヤ___1
  6
CONTINUOUS
 62
     7
 10
488.37026999999989
 20
140.8215099999999
 30
0.0
 11
474.43968000000001
 21
140.8215099999999
 31
0.0
  0
LINE
  5
3BF
  8
_0-1_レイヤ___1
  6
CONTINUOUS
 62
     7
 10
487.16477999999989
 20
133.89389
 30
0.0
 11
539.14333999999985
 21
117.6382
 31
0.0
  0
LINE
  5
3C0
  8
_0-1_レイヤ___1
  6
CONTINUOUS
 62
     7
 10
539.14333999999985
 20
117.6382
 30
0.0
 11
539.14333999999985
 21
112.64281
 31
0.0
  0
LINE
  5
3C1
  8
_0-1_レイヤ___1
  6
CONTINUOUS
 62
     7
 10
539.14333999999985
 20
112.64281
 30
0.0
 11
539.14333999999985
 21
117.6382
 31
0.0
  0
LINE
  5
3C2
  8
_0-1_レイヤ___1
  6
CONTINUOUS
 62
     7
 10
539.14333999999985
 20
-198.2963399999999
 30
0.0
 11
507.18146999999999
 21
-198.2963399999999
 31
0.0
  0
LINE
  5
3C3
  8
_0-1_レイヤ___1
  6
CONTINUOUS
 62
     7
 10
506.24923000000001
 20
-183.30947999999989
 30
0.0
 11
497.4487299999999
 21
-37.047957100000012
 31
0.0
  0
LINE
  5
3C4
  8
_0-1_レイヤ___1
  6
CONTINUOUS
 62
     7
 10
509.25610999999998
 20
-183.13998000000001
 30
0.0
 11
509.85590000000002
 21
-193.13076000000001
 31
0.0
  0
LINE
  5
3C5
  8
_0-1_レイヤ___1
  6
CONTINUOUS
 62
     7
 10
509.85590000000002
 20
-193.13076000000001
 30
0.0
 11
506.84902
 21
-193.30026000000001
 31
0.0
  0
LINE
  5
3C6
  8
_0-1_レイヤ___1
  6
CONTINUOUS
 62
     7
 10
509.25610999999998
 20
-183.13998000000001
 30
0.0
 11
506.24923000000001
 21
-183.30947999999989
 31
0.0
  0
LINE
  5
3C7
  8
_0-1_レイヤ___1
  6
CONTINUOUS
 62
     7
 10
499.86373999999989
 20
-26.888371199999991
 30
0.0
 11
496.85685999999998
 21
-27.057869199999988
 31
0.0
  0
LINE
  5
3C8
  8
_0-1_レイヤ___1
  6
CONTINUOUS
 62
     7
 10
497.4487299999999
 20
-37.047957100000012
 30
0.0
 11
500.45526999999993
 21
-36.878459100000001
 31
0.0
  0
LINE
  5
3C9
  8
_0-1_レイヤ___1
  6
CONTINUOUS
 62
     7
 10
500.45526999999993
 20
-36.878459100000001
 30
0.0
 11
499.86373999999989
 21
-26.888371199999991
 31
0.0
  0
LINE
  5
3CA
  8
_0-1_レイヤ___1
  6
CONTINUOUS
 62
     7
 10
496.85685999999998
 20
-27.057869199999988
 30
0.0
 11
488.04809999999992
 21
119.2046899999999
 31
0.0
  0
LINE
  5
3CB
  8
_0-1_レイヤ___1
  6
CONTINUOUS
 62
     7
 10
491.05462999999997
 20
119.3731499999999
 30
0.0
 11
490.46276999999992
 21
129.36461999999989
 31
0.0
  0
LINE
  5
3CC
  8
_0-1_レイヤ___1
  6
CONTINUOUS
 62
     7
 10
490.46276999999992
 20
129.36461999999989
 30
0.0
 11
487.45657999999997
 21
129.15206000000001
 31
0.0
  0
LINE
  5
3CD
  8
_0-1_レイヤ___1
  6
CONTINUOUS
 62
     7
 10
487.45657999999997
 20
129.15206000000001
 30
0.0
 11
487.16477999999989
 21
133.89389
 31
0.0
  0
LINE
  5
3CE
  8
_0-1_レイヤ___1
  6
CONTINUOUS
 62
     7
 10
491.05462999999997
 20
119.3731499999999
 30
0.0
 11
488.04809999999992
 21
119.2046899999999
 31
0.0
  0
LINE
  5
3CF
  8
_0-1_レイヤ___1
  6
CONTINUOUS
 62
     7
 10
506.84902
 20
-193.30026000000001
 30
0.0
 11
507.18146999999999
 21
-198.2963399999999
 31
0.0
  0
LINE
  5
3D0
  8
_0-1_レイヤ___1
  6
CONTINUOUS
 62
     7
 10
539.14333999999985
 20
-188.30486999999991
 30
0.0
 11
542.14988000000005
 21
-188.30486999999991
 31
0.0
  0
LINE
  5
3D1
  8
_0-1_レイヤ___1
  6
CONTINUOUS
 62
     7
 10
542.14988000000005
 20
-188.30486999999991
 30
0.0
 11
542.14988000000005
 21
-198.2963399999999
 31
0.0
  0
LINE
  5
3D2
  8
_0-1_レイヤ___1
  6
CONTINUOUS
 62
     7
 10
542.14988000000005
 20
-198.2963399999999
 30
0.0
 11
539.14333999999985
 21
-198.2963399999999
 31
0.0
  0
LINE
  5
3D3
  8
_0-1_レイヤ___1
  6
CONTINUOUS
 62
     7
 10
542.14988000000005
 20
-26.888371199999991
 30
0.0
 11
542.14988000000005
 21
-36.878459100000001
 31
0.0
  0
LINE
  5
3D4
  8
_0-1_レイヤ___1
  6
CONTINUOUS
 62
     7
 10
542.14988000000005
 20
-36.878459100000001
 30
0.0
 11
539.14333999999985
 21
-36.878459100000001
 31
0.0
  0
LINE
  5
3D5
  8
_0-1_レイヤ___1
  6
CONTINUOUS
 62
     7
 10
539.14333999999985
 20
-26.888371199999991
 30
0.0
 11
542.14988000000005
 21
-26.888371199999991
 31
0.0
  0
LINE
  5
3D6
  8
_0-1_レイヤ___1
  6
CONTINUOUS
 62
     7
 10
539.14333999999985
 20
102.65134999999989
 30
0.0
 11
542.14988000000005
 21
102.65134999999989
 31
0.0
  0
LINE
  5
3D7
  8
_0-1_レイヤ___1
  6
CONTINUOUS
 62
     7
 10
542.14988000000005
 20
102.65134999999989
 30
0.0
 11
542.14988000000005
 21
112.64281
 31
0.0
  0
LINE
  5
3D8
  8
_0-1_レイヤ___1
  6
CONTINUOUS
 62
     7
 10
539.14333999999985
 20
102.65134999999989
 30
0.0
 11
539.14333999999985
 21
-26.888371199999991
 31
0.0
  0
LINE
  5
3D9
  8
_0-1_レイヤ___1
  6
CONTINUOUS
 62
     7
 10
550.24094999999988
 20
86.825799999999987
 30
0.0
 11
550.24094999999988
 21
71.924379999999999
 31
0.0
  0
LINE
  5
3DA
  8
_0-1_レイヤ___1
  6
CONTINUOUS
 62
     7
 10
550.24094999999988
 20
71.924379999999999
 30
0.0
 11
550.24094999999988
 21
85.894589999999965
 31
0.0
  0
LINE
  5
3DB
  8
_0-1_レイヤ___1
  6
CONTINUOUS
 62
     7
 10
625.34024999999986
 20
47.032196999999996
 30
0.0
 11
625.34024999999986
 21
61.934302000000002
 31
0.0
  0
LINE
  5
3DC
  8
_0-1_レイヤ___1
  6
CONTINUOUS
 62
     7
 10
550.24094999999988
 20
47.032196999999996
 30
0.0
 11
555.23324000000002
 21
47.032196999999996
 31
0.0
  0
LINE
  5
3DD
  8
_0-1_レイヤ___1
  6
CONTINUOUS
 62
     7
 10
625.29958999999997
 20
110.87119
 30
0.0
 11
620.55880000000002
 21
109.3474199999999
 31
0.0
  0
LINE
  5
3DE
  8
_0-1_レイヤ___1
  6
CONTINUOUS
 62
     7
 10
625.34024999999986
 20
47.032196999999996
 30
0.0
 11
625.34024999999986
 21
61.934302000000002
 31
0.0
  0
LINE
  5
3DF
  8
_0-1_レイヤ___1
  6
CONTINUOUS
 62
     7
 10
550.24094999999988
 20
47.032196999999996
 30
0.0
 11
555.23324000000002
 21
47.032196999999996
 31
0.0
  0
LINE
  5
3E0
  8
_0-1_レイヤ___1
  6
CONTINUOUS
 62
     7
 10
611.02896999999996
 20
106.29886
 30
0.0
 11
610.09672999999987
 21
109.1782699999999
 31
0.0
  0
LINE
  5
3E1
  8
_0-1_レイヤ___1
  6
CONTINUOUS
 62
     7
 10
610.09672999999987
 20
109.1782699999999
 30
0.0
 11
619.62689999999998
 21
112.22615
 31
0.0
  0
LINE
  5
3E2
  8
_0-1_レイヤ___1
  6
CONTINUOUS
 62
     7
 10
619.62689999999998
 20
112.22615
 30
0.0
 11
620.55880000000002
 21
109.3474199999999
 31
0.0
  0
LINE
  5
3E3
  8
_0-1_レイヤ___1
  6
CONTINUOUS
 62
     7
 10
611.02896999999996
 20
106.29886
 30
0.0
 11
564.54430000000002
 21
91.398129999999995
 31
0.0
  0
LINE
  5
3E4
  8
_0-1_レイヤ___1
  6
CONTINUOUS
 62
     7
 10
564.54430000000002
 20
91.398129999999995
 30
0.0
 11
563.62067000000002
 21
94.276510000000002
 31
0.0
  0
LINE
  5
3E5
  8
_0-1_レイヤ___1
  6
CONTINUOUS
 62
     7
 10
563.62067000000002
 20
94.276510000000002
 30
0.0
 11
554.09050000000002
 21
91.228290000000015
 31
0.0
  0
LINE
  5
3E6
  8
_0-1_レイヤ___1
  6
CONTINUOUS
 62
     7
 10
554.09050000000002
 20
91.228290000000015
 30
0.0
 11
555.02206000000001
 21
88.350260000000006
 31
0.0
  0
LINE
  5
3E7
  8
_0-1_レイヤ___1
  6
CONTINUOUS
 62
     7
 10
555.02206000000001
 20
88.350260000000006
 30
0.0
 11
550.24094999999988
 21
86.825799999999987
 31
0.0
  0
LINE
  5
3E8
  8
_0-1_レイヤ___1
  6
CONTINUOUS
 62
     7
 10
547.27507000000003
 20
61.934302000000002
 30
0.0
 11
547.27507000000003
 21
71.924379999999999
 31
0.0
  0
LINE
  5
3E9
  8
_0-1_レイヤ___1
  6
CONTINUOUS
 62
     7
 10
547.27507000000003
 20
71.924379999999999
 30
0.0
 11
550.24094999999988
 21
71.924379999999999
 31
0.0
  0
LINE
  5
3EA
  8
_0-1_レイヤ___1
  6
CONTINUOUS
 62
     7
 10
547.27507000000003
 20
61.934302000000002
 30
0.0
 11
550.24094999999988
 21
61.934302000000002
 31
0.0
  0
LINE
  5
3EB
  8
_0-1_レイヤ___1
  6
CONTINUOUS
 62
     7
 10
550.24094999999988
 20
61.934302000000002
 30
0.0
 11
550.24094999999988
 21
47.032196999999996
 31
0.0
  0
LINE
  5
3EC
  8
_0-1_レイヤ___1
  6
CONTINUOUS
 62
     7
 10
550.24094999999988
 20
47.032196999999996
 30
0.0
 11
550.24094999999988
 21
61.934302000000002
 31
0.0
  0
LINE
  5
3ED
  8
_0-1_レイヤ___1
  6
CONTINUOUS
 62
     7
 10
565.26570000000004
 20
47.032196999999996
 30
0.0
 11
565.26570000000004
 21
44.026694999999997
 31
0.0
  0
LINE
  5
3EE
  8
_0-1_レイヤ___1
  6
CONTINUOUS
 62
     7
 10
565.26570000000004
 20
44.026694999999997
 30
0.0
 11
555.23324000000002
 21
44.026694999999997
 31
0.0
  0
LINE
  5
3EF
  8
_0-1_レイヤ___1
  6
CONTINUOUS
 62
     7
 10
555.23324000000002
 20
44.026694999999997
 30
0.0
 11
555.23324000000002
 21
47.032196999999996
 31
0.0
  0
LINE
  5
3F0
  8
_0-1_レイヤ___1
  6
CONTINUOUS
 62
     7
 10
620.34002999999996
 20
47.032196999999996
 30
0.0
 11
620.34002999999996
 21
44.026694999999997
 31
0.0
  0
LINE
  5
3F1
  8
_0-1_レイヤ___1
  6
CONTINUOUS
 62
     7
 10
620.34002999999996
 20
44.026694999999997
 30
0.0
 11
610.30723
 21
44.026694999999997
 31
0.0
  0
LINE
  5
3F2
  8
_0-1_レイヤ___1
  6
CONTINUOUS
 62
     7
 10
610.30723
 20
44.026694999999997
 30
0.0
 11
610.30723
 21
47.032196999999996
 31
0.0
  0
LINE
  5
3F3
  8
_0-1_レイヤ___1
  6
CONTINUOUS
 62
     7
 10
610.30723
 20
47.032196999999996
 30
0.0
 11
565.26570000000004
 21
47.032196999999996
 31
0.0
  0
LINE
  5
3F4
  8
_0-1_レイヤ___1
  6
CONTINUOUS
 62
     7
 10
620.34002999999996
 20
47.032196999999996
 30
0.0
 11
625.34024999999986
 21
47.032196999999996
 31
0.0
  0
LINE
  5
3F5
  8
_0-1_レイヤ___1
  6
CONTINUOUS
 62
     7
 10
625.29958999999997
 20
74.041049999999998
 30
0.0
 11
628.30613000000005
 21
74.041049999999998
 31
0.0
  0
LINE
  5
3F6
  8
_0-1_レイヤ___1
  6
CONTINUOUS
 62
     7
 10
625.29958999999997
 20
84.031829999999999
 30
0.0
 11
628.30613000000005
 21
84.031829999999999
 31
0.0
  0
LINE
  5
3F7
  8
_0-1_レイヤ___1
  6
CONTINUOUS
 62
     7
 10
628.30613000000005
 20
84.031829999999999
 30
0.0
 11
628.30613000000005
 21
74.041049999999998
 31
0.0
  0
LINE
  5
3F8
  8
_0-1_レイヤ___1
  6
CONTINUOUS
 62
     7
 10
625.29958999999997
 20
84.031829999999999
 30
0.0
 11
625.29958999999997
 21
110.87119
 31
0.0
  0
LINE
  5
3F9
  8
_0-1_レイヤ___1
  6
CONTINUOUS
 62
     7
 10
625.34024999999986
 20
47.032196999999996
 30
0.0
 11
625.34024999999986
 21
74.041049999999998
 31
0.0
  0
LINE
  5
3FA
  8
_0-1_レイヤ___1
  6
CONTINUOUS
 62
     7
 10
625.29958999999997
 20
84.031829999999999
 30
0.0
 11
625.29958999999997
 21
110.87119
 31
0.0
  0
LINE
  5
3FB
  8
_0-1_レイヤ___1
  6
CONTINUOUS
 62
     7
 10
-14.720397999999999
 20
319.25382000000002
 30
0.0
 11
-17.641493999999991
 21
320.01656000000003
 31
0.0
  0
LINE
  5
3FC
  8
_0-1_レイヤ___1
  6
CONTINUOUS
 62
     7
 10
-115.3134869999999
 20
147.72607999999991
 30
0.0
 11
-115.3134869999999
 21
152.72147000000001
 31
0.0
  0
LINE
  5
3FD
  8
_0-1_レイヤ___1
  6
CONTINUOUS
 62
     7
 10
-93.431618
 20
140.61403000000001
 30
0.0
 11
-98.084564
 21
142.13778999999991
 31
0.0
  0
LINE
  5
3FE
  8
_0-1_レイヤ___1
  6
CONTINUOUS
 62
     7
 10
-115.3134869999999
 20
147.72607999999991
 30
0.0
 11
-115.3134869999999
 21
152.72147000000001
 31
0.0
  0
LINE
  5
3FF
  8
_0-1_レイヤ___1
  6
CONTINUOUS
 62
     7
 10
-58.379494000000001
 20
407.73811999999992
 30
0.0
 11
-41.40344289999998
 21
407.73811999999992
 31
0.0
  0
LINE
  5
400
  8
_0-1_レイヤ___1
  6
CONTINUOUS
 62
     7
 10
-41.40344289999998
 20
407.73811999999992
 30
0.0
 11
-41.40344289999998
 21
383.09931
 31
0.0
  0
LINE
  5
401
  8
_0-1_レイヤ___1
  6
CONTINUOUS
 62
     7
 10
-41.40344289999998
 20
-192.2535
 30
0.0
 11
-73.407344999999978
 21
-192.2535
 31
0.0
  0
LINE
  5
402
  8
_0-1_レイヤ___1
  6
CONTINUOUS
 62
     7
 10
-38.397941899999999
 20
90.406930000000003
 30
0.0
 11
-38.397941899999999
 21
130.41206
 31
0.0
  0
LINE
  5
403
  8
_0-1_レイヤ___1
  6
CONTINUOUS
 62
     7
 10
-38.397941899999999
 20
130.41206
 30
0.0
 11
-41.40344289999998
 21
130.41206
 31
0.0
  0
LINE
  5
404
  8
_0-1_レイヤ___1
  6
CONTINUOUS
 62
     7
 10
-38.397941899999999
 20
90.406930000000003
 30
0.0
 11
-41.40344289999998
 21
90.406930000000003
 31
0.0
  0
LINE
  5
405
  8
_0-1_レイヤ___1
  6
CONTINUOUS
 62
     7
 10
-41.40344289999998
 20
90.406930000000003
 30
0.0
 11
-41.40344289999998
 21
-122.234008
 31
0.0
  0
LINE
  5
406
  8
_0-1_レイヤ___1
  6
CONTINUOUS
 62
     7
 10
-38.397941899999999
 20
-122.234008
 30
0.0
 11
-38.397941899999999
 21
-162.23913999999991
 31
0.0
  0
LINE
  5
407
  8
_0-1_レイヤ___1
  6
CONTINUOUS
 62
     7
 10
-38.397941899999999
 20
-162.23913999999991
 30
0.0
 11
-41.40344289999998
 21
-162.23913999999991
 31
0.0
  0
LINE
  5
408
  8
_0-1_レイヤ___1
  6
CONTINUOUS
 62
     7
 10
-38.397941899999999
 20
-122.234008
 30
0.0
 11
-41.40344289999998
 21
-122.234008
 31
0.0
  0
LINE
  5
409
  8
_0-1_レイヤ___1
  6
CONTINUOUS
 62
     7
 10
-41.40344289999998
 20
-162.23913999999991
 30
0.0
 11
-41.40344289999998
 21
-192.2535
 31
0.0
  0
LINE
  5
40A
  8
_0-1_レイヤ___1
  6
CONTINUOUS
 62
     7
 10
-38.397941899999999
 20
383.09931
 30
0.0
 11
-38.397941899999999
 21
343.09433999999987
 31
0.0
  0
LINE
  5
40B
  8
_0-1_レイヤ___1
  6
CONTINUOUS
 62
     7
 10
-38.397941899999999
 20
343.09433999999987
 30
0.0
 11
-41.40344289999998
 21
343.09433999999987
 31
0.0
  0
LINE
  5
40C
  8
_0-1_レイヤ___1
  6
CONTINUOUS
 62
     7
 10
-38.397941899999999
 20
383.09931
 30
0.0
 11
-41.40344289999998
 21
383.09931
 31
0.0
  0
LINE
  5
40D
  8
_0-1_レイヤ___1
  6
CONTINUOUS
 62
     7
 10
-41.40344289999998
 20
343.09433999999987
 30
0.0
 11
-41.40344289999998
 21
130.41206
 31
0.0
  0
LINE
  5
40E
  8
_0-1_レイヤ___1
  6
CONTINUOUS
 62
     7
 10
-112.35587200000001
 20
152.72147000000001
 30
0.0
 11
-112.35587200000001
 21
162.75393
 31
0.0
  0
LINE
  5
40F
  8
_0-1_レイヤ___1
  6
CONTINUOUS
 62
     7
 10
-112.35587200000001
 20
162.75393
 30
0.0
 11
-115.3134869999999
 21
162.75393
 31
0.0
  0
LINE
  5
410
  8
_0-1_レイヤ___1
  6
CONTINUOUS
 62
     7
 10
-115.3134869999999
 20
152.72147000000001
 30
0.0
 11
-112.35587200000001
 21
152.72147000000001
 31
0.0
  0
LINE
  5
411
  8
_0-1_レイヤ___1
  6
CONTINUOUS
 62
     7
 10
-115.3134869999999
 20
162.75393
 30
0.0
 11
-115.2735239999999
 21
169.27377000000001
 31
0.0
  0
LINE
  5
412
  8
_0-1_レイヤ___1
  6
CONTINUOUS
 62
     7
 10
-115.2735239999999
 20
169.27377000000001
 30
0.0
 11
-115.232872
 21
172.53283999999991
 31
0.0
  0
LINE
  5
413
  8
_0-1_レイヤ___1
  6
CONTINUOUS
 62
     7
 10
-115.232872
 20
172.53283999999991
 30
0.0
 11
-115.19222000000001
 21
175.8352999999999
 31
0.0
  0
LINE
  5
414
  8
_0-1_レイヤ___1
  6
CONTINUOUS
 62
     7
 10
-115.19222000000001
 20
175.8352999999999
 30
0.0
 11
-115.1515669999999
 21
179.0950499999999
 31
0.0
  0
LINE
  5
415
  8
_0-1_レイヤ___1
  6
CONTINUOUS
 62
     7
 10
-115.1515669999999
 20
179.0950499999999
 30
0.0
 11
-115.022032
 21
182.35515000000001
 31
0.0
  0
LINE
  5
416
  8
_0-1_レイヤ___1
  6
CONTINUOUS
 62
     7
 10
-115.022032
 20
182.35515000000001
 30
0.0
 11
-114.89249599999989
 21
185.61421000000001
 31
0.0
  0
LINE
  5
417
  8
_0-1_レイヤ___1
  6
CONTINUOUS
 62
     7
 10
-114.89249599999989
 20
185.61421000000001
 30
0.0
 11
-114.721964
 21
188.91598999999991
 31
0.0
  0
LINE
  5
418
  8
_0-1_レイヤ___1
  6
CONTINUOUS
 62
     7
 10
-114.721964
 20
188.91598999999991
 30
0.0
 11
-114.552121
 21
192.17643000000001
 31
0.0
  0
LINE
  5
419
  8
_0-1_レイヤ___1
  6
CONTINUOUS
 62
     7
 10
-114.552121
 20
192.17643000000001
 30
0.0
 11
-114.3006289999999
 21
195.43583000000001
 31
0.0
  0
LINE
  5
41A
  8
_0-1_レイヤ___1
  6
CONTINUOUS
 62
     7
 10
-114.3006289999999
 20
195.43583000000001
 30
0.0
 11
-114.049481
 21
198.6948899999999
 31
0.0
  0
LINE
  5
41B
  8
_0-1_レイヤ___1
  6
CONTINUOUS
 62
     7
 10
-114.049481
 20
198.6948899999999
 30
0.0
 11
-113.749758
 21
201.95533
 31
0.0
  0
LINE
  5
41C
  8
_0-1_レイヤ___1
  6
CONTINUOUS
 62
     7
 10
-113.749758
 20
201.95533
 30
0.0
 11
-113.40938300000001
 21
205.21473
 31
0.0
  0
LINE
  5
41D
  8
_0-1_レイヤ___1
  6
CONTINUOUS
 62
     7
 10
-113.40938300000001
 20
205.21473
 30
0.0
 11
-113.028355
 21
208.43210999999991
 31
0.0
  0
LINE
  5
41E
  8
_0-1_レイヤ___1
  6
CONTINUOUS
 62
     7
 10
-113.028355
 20
208.43210999999991
 30
0.0
 11
-112.695903
 21
211.69185999999991
 31
0.0
  0
LINE
  5
41F
  8
_0-1_レイヤ___1
  6
CONTINUOUS
 62
     7
 10
-112.695903
 20
211.69185999999991
 30
0.0
 11
-112.2666439999999
 21
214.95160999999999
 31
0.0
  0
LINE
  5
420
  8
_0-1_レイヤ___1
  6
CONTINUOUS
 62
     7
 10
-66.888535999999974
 20
395.29167999999999
 30
0.0
 11
-64.348121999999989
 21
393.72536000000002
 31
0.0
  0
LINE
  5
421
  8
_0-1_レイヤ___1
  6
CONTINUOUS
 62
     7
 10
-61.638899000000002
 20
403.80105999999989
 30
0.0
 11
-59.099175000000002
 21
402.23439999999999
 31
0.0
  0
LINE
  5
422
  8
_0-1_レイヤ___1
  6
CONTINUOUS
 62
     7
 10
-59.099175000000002
 20
402.23439999999999
 30
0.0
 11
-64.348121999999989
 21
393.72536000000002
 31
0.0
  0
LINE
  5
423
  8
_0-1_レイヤ___1
  6
CONTINUOUS
 62
     7
 10
-61.638899000000002
 20
403.80105999999989
 30
0.0
 11
-60.87718899999998
 21
404.81632999999988
 31
0.0
  0
LINE
  5
424
  8
_0-1_レイヤ___1
  6
CONTINUOUS
 62
     7
 10
-60.87718899999998
 20
404.81632999999988
 30
0.0
 11
-60.072414000000009
 21
405.83262999999999
 31
0.0
  0
LINE
  5
425
  8
_0-1_レイヤ___1
  6
CONTINUOUS
 62
     7
 10
-60.072414000000009
 20
405.83262999999999
 30
0.0
 11
-59.649700999999993
 21
406.29876000000002
 31
0.0
  0
LINE
  5
426
  8
_0-1_レイヤ___1
  6
CONTINUOUS
 62
     7
 10
-59.649700999999993
 20
406.29876000000002
 30
0.0
 11
-59.26867399999999
 21
406.80605000000003
 31
0.0
  0
LINE
  5
427
  8
_0-1_レイヤ___1
  6
CONTINUOUS
 62
     7
 10
-59.26867399999999
 20
406.80605000000003
 30
0.0
 11
-58.844927000000013
 21
407.27199999999999
 31
0.0
  0
LINE
  5
428
  8
_0-1_レイヤ___1
  6
CONTINUOUS
 62
     7
 10
-58.844927000000013
 20
407.27199999999999
 30
0.0
 11
-58.379494000000001
 21
407.73811999999992
 31
0.0
  0
LINE
  5
429
  8
_0-1_レイヤ___1
  6
CONTINUOUS
 62
     7
 10
-98.173792000000006
 20
285.69112999999987
 30
0.0
 11
-100.078586
 21
275.86916000000002
 31
0.0
  0
LINE
  5
42A
  8
_0-1_レイヤ___1
  6
CONTINUOUS
 62
     7
 10
-100.078586
 20
275.86916000000002
 30
0.0
 11
-102.9955479999999
 21
276.41933999999992
 31
0.0
  0
LINE
  5
42B
  8
_0-1_レイヤ___1
  6
CONTINUOUS
 62
     7
 10
-98.173792000000006
 20
285.69112999999987
 30
0.0
 11
-101.14002000000001
 21
286.24097
 31
0.0
  0
LINE
  5
42C
  8
_0-1_レイヤ___1
  6
CONTINUOUS
 62
     7
 10
-101.14002000000001
 20
286.24097
 30
0.0
 11
-100.45926900000001
 21
289.45834000000002
 31
0.0
  0
LINE
  5
42D
  8
_0-1_レイヤ___1
  6
CONTINUOUS
 62
     7
 10
-100.45926900000001
 20
289.45834000000002
 30
0.0
 11
-99.778172999999995
 21
292.63333999999992
 31
0.0
  0
LINE
  5
42E
  8
_0-1_レイヤ___1
  6
CONTINUOUS
 62
     7
 10
-99.778172999999995
 20
292.63333999999992
 30
0.0
 11
-99.106035000000006
 21
295.85072000000002
 31
0.0
  0
LINE
  5
42F
  8
_0-1_レイヤ___1
  6
CONTINUOUS
 62
     7
 10
-99.106035000000006
 20
295.85072000000002
 30
0.0
 11
-98.384631999999996
 21
299.02605999999992
 31
0.0
  0
LINE
  5
430
  8
_0-1_レイヤ___1
  6
CONTINUOUS
 62
     7
 10
-98.384631999999996
 20
299.02605999999992
 30
0.0
 11
-97.663573999999983
 21
302.20037000000002
 31
0.0
  0
LINE
  5
431
  8
_0-1_レイヤ___1
  6
CONTINUOUS
 62
     7
 10
-97.663573999999983
 20
302.20037000000002
 30
0.0
 11
-96.902552000000014
 21
305.37536999999992
 31
0.0
  0
LINE
  5
432
  8
_0-1_レイヤ___1
  6
CONTINUOUS
 62
     7
 10
-96.902552000000014
 20
305.37536999999992
 30
0.0
 11
-96.140496999999996
 21
308.55036999999987
 31
0.0
  0
LINE
  5
433
  8
_0-1_レイヤ___1
  6
CONTINUOUS
 62
     7
 10
-96.140496999999996
 20
308.55036999999987
 30
0.0
 11
-95.336755999999994
 21
311.72572000000002
 31
0.0
  0
LINE
  5
434
  8
_0-1_レイヤ___1
  6
CONTINUOUS
 62
     7
 10
-95.336755999999994
 20
311.72572000000002
 30
0.0
 11
-94.532325999999983
 21
314.90071999999992
 31
0.0
  0
LINE
  5
435
  8
_0-1_レイヤ___1
  6
CONTINUOUS
 62
     7
 10
-94.532325999999983
 20
314.90071999999992
 30
0.0
 11
-93.728240999999997
 21
318.07571999999988
 31
0.0
  0
LINE
  5
436
  8
_0-1_レイヤ___1
  6
CONTINUOUS
 62
     7
 10
-93.728240999999997
 20
318.07571999999988
 30
0.0
 11
-92.881091999999995
 21
321.20800000000003
 31
0.0
  0
LINE
  5
437
  8
_0-1_レイヤ___1
  6
CONTINUOUS
 62
     7
 10
-92.881091999999995
 20
321.20800000000003
 30
0.0
 11
-92.076317999999986
 21
324.38299999999992
 31
0.0
  0
LINE
  5
438
  8
_0-1_レイヤ___1
  6
CONTINUOUS
 62
     7
 10
-92.076317999999986
 20
324.38299999999992
 30
0.0
 11
-91.187482999999986
 21
327.51596999999992
 31
0.0
  0
LINE
  5
439
  8
_0-1_レイヤ___1
  6
CONTINUOUS
 62
     7
 10
-91.187482999999986
 20
327.51596999999992
 30
0.0
 11
-90.340678999999994
 21
330.69130999999999
 31
0.0
  0
LINE
  5
43A
  8
_0-1_レイヤ___1
  6
CONTINUOUS
 62
     7
 10
-90.340678999999994
 20
330.69130999999999
 30
0.0
 11
-89.451500000000024
 21
333.82324999999992
 31
0.0
  0
LINE
  5
43B
  8
_0-1_レイヤ___1
  6
CONTINUOUS
 62
     7
 10
-89.451500000000024
 20
333.82324999999992
 30
0.0
 11
-88.563009999999977
 21
336.95621999999992
 31
0.0
  0
LINE
  5
43C
  8
_0-1_レイヤ___1
  6
CONTINUOUS
 62
     7
 10
-108.07706399999989
 20
224.47626
 30
0.0
 11
-111.00229400000001
 21
224.85762999999989
 31
0.0
  0
LINE
  5
43D
  8
_0-1_レイヤ___1
  6
CONTINUOUS
 62
     7
 10
-112.2666439999999
 20
214.95160999999999
 30
0.0
 11
-109.30868599999989
 21
214.57057999999989
 31
0.0
  0
LINE
  5
43E
  8
_0-1_レイヤ___1
  6
CONTINUOUS
 62
     7
 10
-109.30868599999989
 20
214.57057999999989
 30
0.0
 11
-108.07706399999989
 21
224.47626
 31
0.0
  0
LINE
  5
43F
  8
_0-1_レイヤ___1
  6
CONTINUOUS
 62
     7
 10
-111.00229400000001
 20
224.85762999999989
 30
0.0
 11
-110.11139300000001
 21
231.33440999999999
 31
0.0
  0
LINE
  5
440
  8
_0-1_レイヤ___1
  6
CONTINUOUS
 62
     7
 10
-110.11139300000001
 20
231.33440999999999
 30
0.0
 11
-109.17915000000001
 21
237.76915999999991
 31
0.0
  0
LINE
  5
441
  8
_0-1_レイヤ___1
  6
CONTINUOUS
 62
     7
 10
-109.17915000000001
 20
237.76915999999991
 30
0.0
 11
-108.2065989999999
 21
244.2466299999999
 31
0.0
  0
LINE
  5
442
  8
_0-1_レイヤ___1
  6
CONTINUOUS
 62
     7
 10
-108.2065989999999
 20
244.2466299999999
 30
0.0
 11
-107.2343939999999
 21
250.68103999999991
 31
0.0
  0
LINE
  5
443
  8
_0-1_レイヤ___1
  6
CONTINUOUS
 62
     7
 10
-107.2343939999999
 20
250.68103999999991
 30
0.0
 11
-106.212923
 21
257.11579
 31
0.0
  0
LINE
  5
444
  8
_0-1_レイヤ___1
  6
CONTINUOUS
 62
     7
 10
-106.212923
 20
257.11579
 30
0.0
 11
-105.2000649999999
 21
263.54984999999999
 31
0.0
  0
LINE
  5
445
  8
_0-1_レイヤ___1
  6
CONTINUOUS
 62
     7
 10
-105.2000649999999
 20
263.54984999999999
 30
0.0
 11
-104.64919399999989
 21
266.76722000000001
 31
0.0
  0
LINE
  5
446
  8
_0-1_レイヤ___1
  6
CONTINUOUS
 62
     7
 10
-104.64919399999989
 20
266.76722000000001
 30
0.0
 11
-104.13828599999989
 21
269.98459999999989
 31
0.0
  0
LINE
  5
447
  8
_0-1_レイヤ___1
  6
CONTINUOUS
 62
     7
 10
-104.13828599999989
 20
269.98459999999989
 30
0.0
 11
-103.5953389999999
 21
273.20197000000002
 31
0.0
  0
LINE
  5
448
  8
_0-1_レイヤ___1
  6
CONTINUOUS
 62
     7
 10
-103.5953389999999
 20
273.20197000000002
 30
0.0
 11
-102.9955479999999
 21
276.41933999999992
 31
0.0
  0
LINE
  5
449
  8
_0-1_レイヤ___1
  6
CONTINUOUS
 62
     7
 10
-82.847940999999963
 20
345.71951000000001
 30
0.0
 11
-85.684288000000024
 21
336.10975999999988
 31
0.0
  0
LINE
  5
44A
  8
_0-1_レイヤ___1
  6
CONTINUOUS
 62
     7
 10
-85.684288000000024
 20
336.10975999999988
 30
0.0
 11
-88.563009999999977
 21
336.95621999999992
 31
0.0
  0
LINE
  5
44B
  8
_0-1_レイヤ___1
  6
CONTINUOUS
 62
     7
 10
-82.847940999999963
 20
345.71951000000001
 30
0.0
 11
-85.727350999999999
 21
346.56596999999988
 31
0.0
  0
LINE
  5
44C
  8
_0-1_レイヤ___1
  6
CONTINUOUS
 62
     7
 10
-85.727350999999999
 20
346.56596999999988
 30
0.0
 11
-84.752734000000004
 21
349.69824999999992
 31
0.0
  0
LINE
  5
44D
  8
_0-1_レイヤ___1
  6
CONTINUOUS
 62
     7
 10
-84.752734000000004
 20
349.69824999999992
 30
0.0
 11
-83.779839000000024
 21
352.78919000000002
 31
0.0
  0
LINE
  5
44E
  8
_0-1_レイヤ___1
  6
CONTINUOUS
 62
     7
 10
-83.779839000000024
 20
352.78919000000002
 30
0.0
 11
-82.763536000000002
 21
355.92129999999992
 31
0.0
  0
LINE
  5
44F
  8
_0-1_レイヤ___1
  6
CONTINUOUS
 62
     7
 10
-82.763536000000002
 20
355.92129999999992
 30
0.0
 11
-81.74723299999998
 21
359.01206000000002
 31
0.0
  0
LINE
  5
450
  8
_0-1_レイヤ___1
  6
CONTINUOUS
 62
     7
 10
-81.74723299999998
 20
359.01206000000002
 30
0.0
 11
-80.688898999999978
 21
362.10196999999999
 31
0.0
  0
LINE
  5
451
  8
_0-1_レイヤ___1
  6
CONTINUOUS
 62
     7
 10
-80.688898999999978
 20
362.10196999999999
 30
0.0
 11
-79.630566000000002
 21
365.19308000000001
 31
0.0
  0
LINE
  5
452
  8
_0-1_レイヤ___1
  6
CONTINUOUS
 62
     7
 10
-79.630566000000002
 20
365.19308000000001
 30
0.0
 11
-79.080039999999983
 21
366.75870999999989
 31
0.0
  0
LINE
  5
453
  8
_0-1_レイヤ___1
  6
CONTINUOUS
 62
     7
 10
-79.080039999999983
 20
366.75870999999989
 30
0.0
 11
-78.529857999999976
 21
368.28298999999993
 31
0.0
  0
LINE
  5
454
  8
_0-1_レイヤ___1
  6
CONTINUOUS
 62
     7
 10
-78.529857999999976
 20
368.28298999999993
 30
0.0
 11
-77.979675999999984
 21
369.80658
 31
0.0
  0
LINE
  5
455
  8
_0-1_レイヤ___1
  6
CONTINUOUS
 62
     7
 10
-77.979675999999984
 20
369.80658
 30
0.0
 11
-77.38746399999998
 21
371.37306999999993
 31
0.0
  0
LINE
  5
456
  8
_0-1_レイヤ___1
  6
CONTINUOUS
 62
     7
 10
-77.38746399999998
 20
371.37306999999993
 30
0.0
 11
-76.837283000000014
 21
372.89735000000002
 31
0.0
  0
LINE
  5
457
  8
_0-1_レイヤ___1
  6
CONTINUOUS
 62
     7
 10
-76.837283000000014
 20
372.89735000000002
 30
0.0
 11
-76.243692999999993
 21
374.42093999999992
 31
0.0
  0
LINE
  5
458
  8
_0-1_レイヤ___1
  6
CONTINUOUS
 62
     7
 10
-76.243692999999993
 20
374.42093999999992
 30
0.0
 11
-75.651480999999976
 21
375.94540000000001
 31
0.0
  0
LINE
  5
459
  8
_0-1_レイヤ___1
  6
CONTINUOUS
 62
     7
 10
-75.651480999999976
 20
375.94540000000001
 30
0.0
 11
-75.059269
 21
377.46967999999998
 31
0.0
  0
LINE
  5
45A
  8
_0-1_レイヤ___1
  6
CONTINUOUS
 62
     7
 10
-75.059269
 20
377.46967999999998
 30
0.0
 11
-74.423992999999982
 21
378.99293
 31
0.0
  0
LINE
  5
45B
  8
_0-1_レイヤ___1
  6
CONTINUOUS
 62
     7
 10
-74.423992999999982
 20
378.99293
 30
0.0
 11
-73.831092000000012
 21
380.47465999999991
 31
0.0
  0
LINE
  5
45C
  8
_0-1_レイヤ___1
  6
CONTINUOUS
 62
     7
 10
-73.831092000000012
 20
380.47465999999991
 30
0.0
 11
-73.195817000000005
 21
381.99912
 31
0.0
  0
LINE
  5
45D
  8
_0-1_レイヤ___1
  6
CONTINUOUS
 62
     7
 10
-73.195817000000005
 20
381.99912
 30
0.0
 11
-72.561575000000005
 21
383.52339999999992
 31
0.0
  0
LINE
  5
45E
  8
_0-1_レイヤ___1
  6
CONTINUOUS
 62
     7
 10
-72.561575000000005
 20
383.52339999999992
 30
0.0
 11
-71.883924000000022
 21
385.00461999999987
 31
0.0
  0
LINE
  5
45F
  8
_0-1_レイヤ___1
  6
CONTINUOUS
 62
     7
 10
-71.883924000000022
 20
385.00461999999987
 30
0.0
 11
-71.206617999999963
 21
386.48601000000002
 31
0.0
  0
LINE
  5
460
  8
_0-1_レイヤ___1
  6
CONTINUOUS
 62
     7
 10
-71.206617999999963
 20
386.48601000000002
 30
0.0
 11
-70.528967999999978
 21
387.96843999999999
 31
0.0
  0
LINE
  5
461
  8
_0-1_レイヤ___1
  6
CONTINUOUS
 62
     7
 10
-70.528967999999978
 20
387.96843999999999
 30
0.0
 11
-69.851317999999992
 21
389.44965999999999
 31
0.0
  0
LINE
  5
462
  8
_0-1_レイヤ___1
  6
CONTINUOUS
 62
     7
 10
-69.851317999999992
 20
389.44965999999999
 30
0.0
 11
-69.131981999999994
 21
390.93105000000003
 31
0.0
  0
LINE
  5
463
  8
_0-1_レイヤ___1
  6
CONTINUOUS
 62
     7
 10
-69.131981999999994
 20
390.93105000000003
 30
0.0
 11
-68.412301000000014
 21
392.41329999999988
 31
0.0
  0
LINE
  5
464
  8
_0-1_レイヤ___1
  6
CONTINUOUS
 62
     7
 10
-68.412301000000014
 20
392.41329999999988
 30
0.0
 11
-67.650590999999991
 21
393.85230999999987
 31
0.0
  0
LINE
  5
465
  8
_0-1_レイヤ___1
  6
CONTINUOUS
 62
     7
 10
-67.650590999999991
 20
393.85230999999987
 30
0.0
 11
-66.888535999999974
 21
395.29167999999999
 31
0.0
  0
LINE
  5
466
  8
_0-1_レイヤ___1
  6
CONTINUOUS
 62
     7
 10
-70.698466999999994
 20
-187.08793
 30
0.0
 11
-71.290679000000026
 21
-177.09714999999991
 31
0.0
  0
LINE
  5
467
  8
_0-1_レイヤ___1
  6
CONTINUOUS
 62
     7
 10
-71.290679000000026
 20
-177.09714999999991
 30
0.0
 11
-74.296525000000003
 21
-177.26664999999991
 31
0.0
  0
LINE
  5
468
  8
_0-1_レイヤ___1
  6
CONTINUOUS
 62
     7
 10
-73.704313000000013
 20
-187.25742
 30
0.0
 11
-70.698466999999994
 21
-187.08793
 31
0.0
  0
LINE
  5
469
  8
_0-1_レイヤ___1
  6
CONTINUOUS
 62
     7
 10
-80.096342999999976
 20
-30.83562499999999
 30
0.0
 11
-80.688898999999978
 21
-20.845537100000001
 31
0.0
  0
LINE
  5
46A
  8
_0-1_レイヤ___1
  6
CONTINUOUS
 62
     7
 10
-80.688898999999978
 20
-20.845537100000001
 30
0.0
 11
-83.694400999999999
 21
-21.015035099999999
 31
0.0
  0
LINE
  5
46B
  8
_0-1_レイヤ___1
  6
CONTINUOUS
 62
     7
 10
-83.102189000000024
 20
-31.005123000000001
 30
0.0
 11
-80.096342999999976
 21
-30.83562499999999
 31
0.0
  0
LINE
  5
46C
  8
_0-1_レイヤ___1
  6
CONTINUOUS
 62
     7
 10
-89.494562999999985
 20
125.41598999999989
 30
0.0
 11
-90.129149999999996
 21
135.40745000000001
 31
0.0
  0
LINE
  5
46D
  8
_0-1_レイヤ___1
  6
CONTINUOUS
 62
     7
 10
-90.129149999999996
 20
135.40745000000001
 30
0.0
 11
-93.134651000000005
 21
135.1948899999999
 31
0.0
  0
LINE
  5
46E
  8
_0-1_レイヤ___1
  6
CONTINUOUS
 62
     7
 10
-92.500065000000006
 20
125.24751999999989
 30
0.0
 11
-89.494562999999985
 21
125.41598999999989
 31
0.0
  0
LINE
  5
46F
  8
_0-1_レイヤ___1
  6
CONTINUOUS
 62
     7
 10
-93.134651000000005
 20
135.1948899999999
 30
0.0
 11
-93.431618
 21
140.61403000000001
 31
0.0
  0
LINE
  5
470
  8
_0-1_レイヤ___1
  6
CONTINUOUS
 62
     7
 10
-83.694400999999999
 20
-21.015035099999999
 30
0.0
 11
-92.500065000000006
 21
125.24751999999989
 31
0.0
  0
LINE
  5
471
  8
_0-1_レイヤ___1
  6
CONTINUOUS
 62
     7
 10
-74.296525000000003
 20
-177.26664999999991
 30
0.0
 11
-83.102189000000024
 21
-31.005123000000001
 31
0.0
  0
LINE
  5
472
  8
_0-1_レイヤ___1
  6
CONTINUOUS
 62
     7
 10
-73.704313000000013
 20
-187.25742
 30
0.0
 11
-73.407344999999978
 21
-192.2535
 31
0.0
  0
LINE
  5
473
  8
_0-1_レイヤ___1
  6
CONTINUOUS
 62
     7
 10
-54.27328499999998
 20
131.04664999999989
 30
0.0
 11
-44.7479418
 21
127.9567399999999
 31
0.0
  0
LINE
  5
474
  8
_0-1_レイヤ___1
  6
CONTINUOUS
 62
     7
 10
-44.7479418
 20
127.9567399999999
 30
0.0
 11
-45.679150800000002
 21
125.1203999999999
 31
0.0
  0
LINE
  5
475
  8
_0-1_レイヤ___1
  6
CONTINUOUS
 62
     7
 10
-55.204494000000011
 20
128.21029999999999
 30
0.0
 11
-54.27328499999998
 21
131.04664999999989
 31
0.0
  0
LINE
  5
476
  8
_0-1_レイヤ___1
  6
CONTINUOUS
 62
     7
 10
-98.084564
 20
142.13778999999991
 30
0.0
 11
-97.156800000000004
 21
144.97414000000001
 31
0.0
  0
LINE
  5
477
  8
_0-1_レイヤ___1
  6
CONTINUOUS
 62
     7
 10
-97.156800000000004
 20
144.97414000000001
 30
0.0
 11
-106.642871
 21
148.06507999999999
 31
0.0
  0
LINE
  5
478
  8
_0-1_レイヤ___1
  6
CONTINUOUS
 62
     7
 10
-106.642871
 20
148.06507999999999
 30
0.0
 11
-107.57442399999989
 21
145.22838999999991
 31
0.0
  0
LINE
  5
479
  8
_0-1_レイヤ___1
  6
CONTINUOUS
 62
     7
 10
-107.57442399999989
 20
145.22838999999991
 30
0.0
 11
-115.3134869999999
 21
147.72607999999991
 31
0.0
  0
LINE
  5
47A
  8
_0-1_レイヤ___1
  6
CONTINUOUS
 62
     7
 10
-55.204494000000011
 20
128.21029999999999
 30
0.0
 11
-45.679150800000002
 21
125.1203999999999
 31
0.0
  0
LINE
  5
47B
  8
_0-1_レイヤ___1
  6
CONTINUOUS
 62
     7
 10
-61.738422000000021
 20
-202.09537
 30
0.0
 11
-32.740021000000013
 21
-202.09537
 31
0.0
  0
LINE
  5
47C
  8
_0-1_レイヤ___1
  6
CONTINUOUS
 62
     7
 10
-32.740021000000013
 20
-202.09537
 30
0.0
 11
-32.740021000000013
 21
-221.06130999999991
 31
0.0
  0
LINE
  5
47D
  8
_0-1_レイヤ___1
  6
CONTINUOUS
 62
     7
 10
-32.740021000000013
 20
-221.06130999999991
 30
0.0
 11
-61.738422000000021
 21
-221.06130999999991
 31
0.0
  0
LINE
  5
47E
  8
_0-1_レイヤ___1
  6
CONTINUOUS
 62
     7
 10
-61.738422000000021
 20
-221.06130999999991
 30
0.0
 11
-61.738422000000021
 21
-202.09537
 31
0.0
  0
LINE
  5
47F
  8
_0-1_レイヤ___1
  6
CONTINUOUS
 62
     7
 10
-61.738422000000021
 20
-202.09537
 30
0.0
 11
-32.740021000000013
 21
-202.09537
 31
0.0
  0
LINE
  5
480
  8
_0-1_レイヤ___1
  6
CONTINUOUS
 62
     7
 10
-32.740021000000013
 20
-202.09537
 30
0.0
 11
-32.740021000000013
 21
-221.06130999999991
 31
0.0
  0
LINE
  5
481
  8
_0-1_レイヤ___1
  6
CONTINUOUS
 62
     7
 10
-32.740021000000013
 20
-221.06130999999991
 30
0.0
 11
-61.738422000000021
 21
-221.06130999999991
 31
0.0
  0
LINE
  5
482
  8
_0-1_レイヤ___1
  6
CONTINUOUS
 62
     7
 10
-61.738422000000021
 20
-221.06130999999991
 30
0.0
 11
-61.738422000000021
 21
-202.09537
 31
0.0
  0
LINE
  5
483
  8
_0-1_レイヤ___1
  6
CONTINUOUS
 62
     7
 10
-82.805357000000015
 20
-194.11666
 30
0.0
 11
-83.396880000000024
 21
-184.1265699999999
 31
0.0
  0
LINE
  5
484
  8
_0-1_レイヤ___1
  6
CONTINUOUS
 62
     7
 10
-83.396880000000024
 20
-184.1265699999999
 30
0.0
 11
-86.403758999999994
 21
-184.2960699999999
 31
0.0
  0
LINE
  5
485
  8
_0-1_レイヤ___1
  6
CONTINUOUS
 62
     7
 10
-85.811892
 20
-194.28684000000001
 30
0.0
 11
-82.805357000000015
 21
-194.11666
 31
0.0
  0
LINE
  5
486
  8
_0-1_レイヤ___1
  6
CONTINUOUS
 62
     7
 10
-92.205644000000007
 20
-37.8650442
 30
0.0
 11
-92.797511999999969
 21
-27.873578299999998
 31
0.0
  0
LINE
  5
487
  8
_0-1_レイヤ___1
  6
CONTINUOUS
 62
     7
 10
-92.797511999999969
 20
-27.873578299999998
 30
0.0
 11
-95.804046999999997
 21
-28.085796299999998
 31
0.0
  0
LINE
  5
488
  8
_0-1_レイヤ___1
  6
CONTINUOUS
 62
     7
 10
-95.212523999999988
 20
-38.034543200000002
 30
0.0
 11
-92.205644000000007
 21
-37.8650442
 31
0.0
  0
LINE
  5
489
  8
_0-1_レイヤ___1
  6
CONTINUOUS
 62
     7
 10
-101.5983529999999
 20
118.38760000000001
 30
0.0
 11
-102.23879599999989
 21
128.33635000000001
 31
0.0
  0
LINE
  5
48A
  8
_0-1_レイヤ___1
  6
CONTINUOUS
 62
     7
 10
-102.23879599999989
 20
128.33635000000001
 30
0.0
 11
-105.1964099999999
 21
128.16685000000001
 31
0.0
  0
LINE
  5
48B
  8
_0-1_レイヤ___1
  6
CONTINUOUS
 62
     7
 10
-104.60488700000001
 20
118.1760699999999
 30
0.0
 11
-101.5983529999999
 21
118.38760000000001
 31
0.0
  0
LINE
  5
48C
  8
_0-1_レイヤ___1
  6
CONTINUOUS
 62
     7
 10
-124.4190099999999
 20
131.34184999999999
 30
0.0
 11
-105.4964779999999
 21
133.16189
 31
0.0
  0
LINE
  5
48D
  8
_0-1_レイヤ___1
  6
CONTINUOUS
 62
     7
 10
-104.4836199999999
 20
-200.25582
 30
0.0
 11
-104.775075
 21
-195.42923999999991
 31
0.0
  0
LINE
  5
48E
  8
_0-1_レイヤ___1
  6
CONTINUOUS
 62
     7
 10
-124.4190099999999
 20
131.34184999999999
 30
0.0
 11
-124.4190099999999
 21
131.12962999999991
 31
0.0
  0
LINE
  5
48F
  8
_0-1_レイヤ___1
  6
CONTINUOUS
 62
     7
 10
-105.4964779999999
 20
133.16189
 30
0.0
 11
-105.1964099999999
 21
128.16685000000001
 31
0.0
  0
LINE
  5
490
  8
_0-1_レイヤ___1
  6
CONTINUOUS
 62
     7
 10
-85.512168000000003
 20
-199.28153999999989
 30
0.0
 11
-104.4836199999999
 21
-200.42531999999991
 31
0.0
  0
LINE
  5
491
  8
_0-1_レイヤ___1
  6
CONTINUOUS
 62
     7
 10
-104.4836199999999
 20
-200.42531999999991
 30
0.0
 11
-104.4836199999999
 21
-200.25582
 31
0.0
  0
LINE
  5
492
  8
_0-1_レイヤ___1
  6
CONTINUOUS
 62
     7
 10
-85.512168000000003
 20
-199.11203999999989
 30
0.0
 11
-85.811892
 21
-194.28684000000001
 31
0.0
  0
LINE
  5
493
  8
_0-1_レイヤ___1
  6
CONTINUOUS
 62
     7
 10
-85.811892
 20
-194.28684000000001
 30
0.0
 11
-85.512168000000003
 21
-199.28153999999989
 31
0.0
  0
LINE
  5
494
  8
_0-1_レイヤ___1
  6
CONTINUOUS
 62
     7
 10
-95.212523999999988
 20
-38.034543200000002
 30
0.0
 11
-86.403758999999994
 21
-184.2960699999999
 31
0.0
  0
LINE
  5
495
  8
_0-1_レイヤ___1
  6
CONTINUOUS
 62
     7
 10
-104.60488700000001
 20
118.1760699999999
 30
0.0
 11
-95.804046999999997
 21
-28.085796299999998
 31
0.0
  0
LINE
  5
496
  8
_0-1_レイヤ___1
  6
CONTINUOUS
 62
     7
 10
-108.373133
 20
-185.64999
 30
0.0
 11
-107.78161
 21
-195.59873999999991
 31
0.0
  0
LINE
  5
497
  8
_0-1_レイヤ___1
  6
CONTINUOUS
 62
     7
 10
-107.78161
 20
-195.59873999999991
 30
0.0
 11
-104.775075
 21
-195.42923999999991
 31
0.0
  0
LINE
  5
498
  8
_0-1_レイヤ___1
  6
CONTINUOUS
 62
     7
 10
-108.373133
 20
-185.64999
 30
0.0
 11
-105.36694300000001
 21
-185.43845999999991
 31
0.0
  0
LINE
  5
499
  8
_0-1_レイヤ___1
  6
CONTINUOUS
 62
     7
 10
-114.175707
 20
-39.17693719999999
 30
0.0
 11
-117.1822419999999
 21
-39.388465199999999
 31
0.0
  0
LINE
  5
49A
  8
_0-1_レイヤ___1
  6
CONTINUOUS
 62
     7
 10
-114.7672299999999
 20
-29.228879299999999
 30
0.0
 11
-117.773765
 21
-29.397688299999999
 31
0.0
  0
LINE
  5
49B
  8
_0-1_レイヤ___1
  6
CONTINUOUS
 62
     7
 10
-117.773765
 20
-29.397688299999999
 30
0.0
 11
-117.1822419999999
 21
-39.388465199999999
 31
0.0
  0
LINE
  5
49C
  8
_0-1_レイヤ___1
  6
CONTINUOUS
 62
     7
 10
-123.568071
 20
117.03299
 30
0.0
 11
-126.57495
 21
116.86315
 31
0.0
  0
LINE
  5
49D
  8
_0-1_レイヤ___1
  6
CONTINUOUS
 62
     7
 10
-124.167862
 20
127.02307999999989
 30
0.0
 11
-127.1664729999999
 21
126.8539199999999
 31
0.0
  0
LINE
  5
49E
  8
_0-1_レイヤ___1
  6
CONTINUOUS
 62
     7
 10
-127.1664729999999
 20
126.8539199999999
 30
0.0
 11
-126.57495
 21
116.86315
 31
0.0
  0
LINE
  5
49F
  8
_0-1_レイヤ___1
  6
CONTINUOUS
 62
     7
 10
-105.36694300000001
 20
-185.43845999999991
 30
0.0
 11
-114.175707
 21
-39.17693719999999
 31
0.0
  0
LINE
  5
4A0
  8
_0-1_レイヤ___1
  6
CONTINUOUS
 62
     7
 10
-114.7672299999999
 20
-29.228879299999999
 30
0.0
 11
-123.568071
 21
117.03299
 31
0.0
  0
LINE
  5
4A1
  8
_0-1_レイヤ___1
  6
CONTINUOUS
 62
     7
 10
-124.167862
 20
127.02307999999989
 30
0.0
 11
-124.4190099999999
 21
131.34184999999999
 31
0.0
  0
LINE
  5
4A2
  8
_0-1_レイヤ___1
  6
CONTINUOUS
 62
     7
 10
-18.239405000000001
 20
403.23916999999989
 30
0.0
 11
-18.239405000000001
 21
388.25351999999992
 31
0.0
  0
LINE
  5
4A3
  8
_0-1_レイヤ___1
  6
CONTINUOUS
 62
     7
 10
-18.239405000000001
 20
388.25351999999992
 30
0.0
 11
-1.2633529999999951
 21
388.25351999999992
 31
0.0
  0
LINE
  5
4A4
  8
_0-1_レイヤ___1
  6
CONTINUOUS
 62
     7
 10
-1.2633529999999951
 20
388.25351999999992
 30
0.0
 11
-1.2633529999999951
 21
403.23916999999989
 31
0.0
  0
LINE
  5
4A5
  8
_0-1_レイヤ___1
  6
CONTINUOUS
 62
     7
 10
-1.2633529999999951
 20
403.23916999999989
 30
0.0
 11
-18.239405000000001
 21
403.23916999999989
 31
0.0
  0
LINE
  5
4A6
  8
_0-1_レイヤ___1
  6
CONTINUOUS
 62
     7
 10
-18.239405000000001
 20
403.23916999999989
 30
0.0
 11
-18.239405000000001
 21
388.25351999999992
 31
0.0
  0
LINE
  5
4A7
  8
_0-1_レイヤ___1
  6
CONTINUOUS
 62
     7
 10
-18.239405000000001
 20
388.25351999999992
 30
0.0
 11
-1.2633529999999951
 21
388.25351999999992
 31
0.0
  0
LINE
  5
4A8
  8
_0-1_レイヤ___1
  6
CONTINUOUS
 62
     7
 10
-1.2633529999999951
 20
388.25351999999992
 30
0.0
 11
-1.2633529999999951
 21
403.23916999999989
 31
0.0
  0
LINE
  5
4A9
  8
_0-1_レイヤ___1
  6
CONTINUOUS
 62
     7
 10
-1.2633529999999951
 20
403.23916999999989
 30
0.0
 11
-18.239405000000001
 21
403.23916999999989
 31
0.0
  0
LINE
  5
4AA
  8
_0-1_レイヤ___1
  6
CONTINUOUS
 62
     7
 10
-124.149655
 20
140.8215099999999
 30
0.0
 11
-124.149655
 21
145.8169
 31
0.0
  0
LINE
  5
4AB
  8
_0-1_レイヤ___1
  6
CONTINUOUS
 62
     7
 10
-124.1093479999999
 20
410.06209999999999
 30
0.0
 11
-139.09344599999989
 21
410.01902999999987
 31
0.0
  0
LINE
  5
4AC
  8
_0-1_レイヤ___1
  6
CONTINUOUS
 62
     7
 10
-139.09344599999989
 20
410.01902999999987
 30
0.0
 11
-139.64466100000001
 21
407.56456999999989
 31
0.0
  0
LINE
  5
4AD
  8
_0-1_レイヤ___1
  6
CONTINUOUS
 62
     7
 10
-139.64466100000001
 20
407.56456999999989
 30
0.0
 11
-140.1955319999999
 21
405.1511099999999
 31
0.0
  0
LINE
  5
4AE
  8
_0-1_レイヤ___1
  6
CONTINUOUS
 62
     7
 10
-162.96760999999989
 20
140.8215099999999
 30
0.0
 11
-148.06413000000001
 21
140.8215099999999
 31
0.0
  0
LINE
  5
4AF
  8
_0-1_レイヤ___1
  6
CONTINUOUS
 62
     7
 10
-121.14312
 20
145.8169
 30
0.0
 11
-121.14312
 21
155.84935999999999
 31
0.0
  0
LINE
  5
4B0
  8
_0-1_レイヤ___1
  6
CONTINUOUS
 62
     7
 10
-121.14312
 20
155.84935999999999
 30
0.0
 11
-124.149655
 21
155.84935999999999
 31
0.0
  0
LINE
  5
4B1
  8
_0-1_レイヤ___1
  6
CONTINUOUS
 62
     7
 10
-124.149655
 20
145.8169
 30
0.0
 11
-121.14312
 21
145.8169
 31
0.0
  0
LINE
  5
4B2
  8
_0-1_レイヤ___1
  6
CONTINUOUS
 62
     7
 10
-124.1093479999999
 20
395.03304000000003
 30
0.0
 11
-121.1024679999999
 21
395.03304000000003
 31
0.0
  0
LINE
  5
4B3
  8
_0-1_レイヤ___1
  6
CONTINUOUS
 62
     7
 10
-124.1093479999999
 20
405.02381999999989
 30
0.0
 11
-121.1024679999999
 21
405.02381999999989
 31
0.0
  0
LINE
  5
4B4
  8
_0-1_レイヤ___1
  6
CONTINUOUS
 62
     7
 10
-121.1024679999999
 20
405.02381999999989
 30
0.0
 11
-121.1024679999999
 21
395.03304000000003
 31
0.0
  0
LINE
  5
4B5
  8
_0-1_レイヤ___1
  6
CONTINUOUS
 62
     7
 10
-124.1093479999999
 20
410.06209999999999
 30
0.0
 11
-124.1093479999999
 21
405.02381999999989
 31
0.0
  0
LINE
  5
4B6
  8
_0-1_レイヤ___1
  6
CONTINUOUS
 62
     7
 10
-124.149655
 20
270.44632999999999
 30
0.0
 11
-121.14312
 21
270.44632999999999
 31
0.0
  0
LINE
  5
4B7
  8
_0-1_レイヤ___1
  6
CONTINUOUS
 62
     7
 10
-124.149655
 20
280.43709999999987
 30
0.0
 11
-121.14312
 21
280.43709999999987
 31
0.0
  0
LINE
  5
4B8
  8
_0-1_レイヤ___1
  6
CONTINUOUS
 62
     7
 10
-121.14312
 20
280.43709999999987
 30
0.0
 11
-121.14312
 21
270.44632999999999
 31
0.0
  0
LINE
  5
4B9
  8
_0-1_レイヤ___1
  6
CONTINUOUS
 62
     7
 10
-124.149655
 20
270.44632999999999
 30
0.0
 11
-124.149655
 21
218.12187
 31
0.0
  0
LINE
  5
4BA
  8
_0-1_レイヤ___1
  6
CONTINUOUS
 62
     7
 10
-124.149655
 20
280.43709999999987
 30
0.0
 11
-124.149655
 21
332.76121000000001
 31
0.0
  0
LINE
  5
4BB
  8
_0-1_レイヤ___1
  6
CONTINUOUS
 62
     7
 10
-121.14312
 20
218.12187
 30
0.0
 11
-121.14312
 21
208.13144
 31
0.0
  0
LINE
  5
4BC
  8
_0-1_レイヤ___1
  6
CONTINUOUS
 62
     7
 10
-121.14312
 20
208.13144
 30
0.0
 11
-124.149655
 21
208.13144
 31
0.0
  0
LINE
  5
4BD
  8
_0-1_レイヤ___1
  6
CONTINUOUS
 62
     7
 10
-121.14312
 20
218.12187
 30
0.0
 11
-124.149655
 21
218.12187
 31
0.0
  0
LINE
  5
4BE
  8
_0-1_レイヤ___1
  6
CONTINUOUS
 62
     7
 10
-124.149655
 20
208.13144
 30
0.0
 11
-124.149655
 21
155.84935999999999
 31
0.0
  0
LINE
  5
4BF
  8
_0-1_レイヤ___1
  6
CONTINUOUS
 62
     7
 10
-121.18377199999991
 20
342.75130000000001
 30
0.0
 11
-121.18377199999991
 21
332.76121000000001
 31
0.0
  0
LINE
  5
4C0
  8
_0-1_レイヤ___1
  6
CONTINUOUS
 62
     7
 10
-121.18377199999991
 20
332.76121000000001
 30
0.0
 11
-124.149655
 21
332.76121000000001
 31
0.0
  0
LINE
  5
4C1
  8
_0-1_レイヤ___1
  6
CONTINUOUS
 62
     7
 10
-121.18377199999991
 20
342.75130000000001
 30
0.0
 11
-124.149655
 21
342.75130000000001
 31
0.0
  0
LINE
  5
4C2
  8
_0-1_レイヤ___1
  6
CONTINUOUS
 62
     7
 10
-124.149655
 20
342.75130000000001
 30
0.0
 11
-124.149655
 21
395.03304000000003
 31
0.0
  0
LINE
  5
4C3
  8
_0-1_レイヤ___1
  6
CONTINUOUS
 62
     7
 10
-162.92729999999989
 20
155.84935999999999
 30
0.0
 11
-165.89283999999989
 21
155.84935999999999
 31
0.0
  0
LINE
  5
4C4
  8
_0-1_レイヤ___1
  6
CONTINUOUS
 62
     7
 10
-165.89283999999989
 20
155.84935999999999
 30
0.0
 11
-165.89283999999989
 21
145.8169
 31
0.0
  0
LINE
  5
4C5
  8
_0-1_レイヤ___1
  6
CONTINUOUS
 62
     7
 10
-165.89283999999989
 20
145.8169
 30
0.0
 11
-162.92729999999989
 21
145.8169
 31
0.0
  0
LINE
  5
4C6
  8
_0-1_レイヤ___1
  6
CONTINUOUS
 62
     7
 10
-162.24620999999999
 20
203.51674
 30
0.0
 11
-165.25308000000001
 21
203.64420000000001
 31
0.0
  0
LINE
  5
4C7
  8
_0-1_レイヤ___1
  6
CONTINUOUS
 62
     7
 10
-165.25308000000001
 20
203.64420000000001
 30
0.0
 11
-164.79075
 21
213.63463999999991
 31
0.0
  0
LINE
  5
4C8
  8
_0-1_レイヤ___1
  6
CONTINUOUS
 62
     7
 10
-164.79075
 20
213.63463999999991
 30
0.0
 11
-161.74391
 21
213.50819999999999
 31
0.0
  0
LINE
  5
4C9
  8
_0-1_レイヤ___1
  6
CONTINUOUS
 62
     7
 10
-162.92729999999989
 20
145.8169
 30
0.0
 11
-162.96760999999989
 21
140.8215099999999
 31
0.0
  0
LINE
  5
4CA
  8
_0-1_レイヤ___1
  6
CONTINUOUS
 62
     7
 10
-162.24620999999999
 20
203.51674
 30
0.0
 11
-162.50561999999999
 21
197.59048000000001
 31
0.0
  0
LINE
  5
4CB
  8
_0-1_レイヤ___1
  6
CONTINUOUS
 62
     7
 10
-162.50561999999999
 20
197.59048000000001
 30
0.0
 11
-162.62723
 21
194.58464000000001
 31
0.0
  0
LINE
  5
4CC
  8
_0-1_レイヤ___1
  6
CONTINUOUS
 62
     7
 10
-162.62723
 20
194.58464000000001
 30
0.0
 11
-162.7161199999999
 21
191.57912999999999
 31
0.0
  0
LINE
  5
4CD
  8
_0-1_レイヤ___1
  6
CONTINUOUS
 62
     7
 10
-162.7161199999999
 20
191.57912999999999
 30
0.0
 11
-162.7974199999999
 21
188.6160099999999
 31
0.0
  0
LINE
  5
4CE
  8
_0-1_レイヤ___1
  6
CONTINUOUS
 62
     7
 10
-162.7974199999999
 20
188.6160099999999
 30
0.0
 11
-162.846
 21
185.6525399999999
 31
0.0
  0
LINE
  5
4CF
  8
_0-1_レイヤ___1
  6
CONTINUOUS
 62
     7
 10
-162.846
 20
185.6525399999999
 30
0.0
 11
-162.88665
 21
182.64668999999989
 31
0.0
  0
LINE
  5
4D0
  8
_0-1_レイヤ___1
  6
CONTINUOUS
 62
     7
 10
-162.88665
 20
182.64668999999989
 30
0.0
 11
-162.92729999999989
 21
179.68322000000001
 31
0.0
  0
LINE
  5
4D1
  8
_0-1_レイヤ___1
  6
CONTINUOUS
 62
     7
 10
-162.92729999999989
 20
179.68322000000001
 30
0.0
 11
-162.96760999999989
 21
176.72043999999991
 31
0.0
  0
LINE
  5
4D2
  8
_0-1_レイヤ___1
  6
CONTINUOUS
 62
     7
 10
-162.96760999999989
 20
176.72043999999991
 30
0.0
 11
-162.96760999999989
 21
167.78799000000001
 31
0.0
  0
LINE
  5
4D3
  8
_0-1_レイヤ___1
  6
CONTINUOUS
 62
     7
 10
-162.96760999999989
 20
167.78799000000001
 30
0.0
 11
-162.92729999999989
 21
161.81868
 31
0.0
  0
LINE
  5
4D4
  8
_0-1_レイヤ___1
  6
CONTINUOUS
 62
     7
 10
-162.92729999999989
 20
161.81868
 30
0.0
 11
-162.92729999999989
 21
155.84935999999999
 31
0.0
  0
LINE
  5
4D5
  8
_0-1_レイヤ___1
  6
CONTINUOUS
 62
     7
 10
-157.00276999999991
 20
280.98728999999992
 30
0.0
 11
-160.00964999999991
 21
281.24119000000002
 31
0.0
  0
LINE
  5
4D6
  8
_0-1_レイヤ___1
  6
CONTINUOUS
 62
     7
 10
-160.00964999999991
 20
281.24119000000002
 30
0.0
 11
-160.8120099999999
 21
271.29279000000002
 31
0.0
  0
LINE
  5
4D7
  8
_0-1_レイヤ___1
  6
CONTINUOUS
 62
     7
 10
-160.8120099999999
 20
271.29279000000002
 30
0.0
 11
-157.84578999999991
 21
271.03922999999992
 31
0.0
  0
LINE
  5
4D8
  8
_0-1_レイヤ___1
  6
CONTINUOUS
 62
     7
 10
-157.84578999999991
 20
271.03922999999992
 30
0.0
 11
-158.39666
 21
263.88479999999993
 31
0.0
  0
LINE
  5
4D9
  8
_0-1_レイヤ___1
  6
CONTINUOUS
 62
     7
 10
-158.39666
 20
263.88479999999993
 30
0.0
 11
-158.6481499999999
 21
260.28674000000001
 31
0.0
  0
LINE
  5
4DA
  8
_0-1_レイヤ___1
  6
CONTINUOUS
 62
     7
 10
-158.6481499999999
 20
260.28674000000001
 30
0.0
 11
-158.9075599999999
 21
256.6452799999999
 31
0.0
  0
LINE
  5
4DB
  8
_0-1_レイヤ___1
  6
CONTINUOUS
 62
     7
 10
-158.9075599999999
 20
256.6452799999999
 30
0.0
 11
-159.15871000000001
 21
253.04755999999989
 31
0.0
  0
LINE
  5
4DC
  8
_0-1_レイヤ___1
  6
CONTINUOUS
 62
     7
 10
-159.15871000000001
 20
253.04755999999989
 30
0.0
 11
-159.4098599999999
 21
249.44915999999989
 31
0.0
  0
LINE
  5
4DD
  8
_0-1_レイヤ___1
  6
CONTINUOUS
 62
     7
 10
-159.4098599999999
 20
249.44915999999989
 30
0.0
 11
-159.92041999999989
 21
242.29403999999991
 31
0.0
  0
LINE
  5
4DE
  8
_0-1_レイヤ___1
  6
CONTINUOUS
 62
     7
 10
-159.92041999999989
 20
242.29403999999991
 30
0.0
 11
-160.43133
 21
235.09827000000001
 31
0.0
  0
LINE
  5
4DF
  8
_0-1_レイヤ___1
  6
CONTINUOUS
 62
     7
 10
-160.43133
 20
235.09827000000001
 30
0.0
 11
-160.89296999999999
 21
227.90077999999991
 31
0.0
  0
LINE
  5
4E0
  8
_0-1_レイヤ___1
  6
CONTINUOUS
 62
     7
 10
-160.89296999999999
 20
227.90077999999991
 30
0.0
 11
-161.31430999999989
 21
220.70432
 31
0.0
  0
LINE
  5
4E1
  8
_0-1_レイヤ___1
  6
CONTINUOUS
 62
     7
 10
-161.31430999999989
 20
220.70432
 30
0.0
 11
-161.74391
 21
213.50819999999999
 31
0.0
  0
LINE
  5
4E2
  8
_0-1_レイヤ___1
  6
CONTINUOUS
 62
     7
 10
-149.63646999999989
 20
348.25484
 30
0.0
 11
-152.643
 21
348.63569999999987
 31
0.0
  0
LINE
  5
4E3
  8
_0-1_レイヤ___1
  6
CONTINUOUS
 62
     7
 10
-152.643
 20
348.63569999999987
 30
0.0
 11
-153.86669999999989
 21
338.68747000000002
 31
0.0
  0
LINE
  5
4E4
  8
_0-1_レイヤ___1
  6
CONTINUOUS
 62
     7
 10
-153.86669999999989
 20
338.68747000000002
 30
0.0
 11
-150.90082000000001
 21
338.30644000000001
 31
0.0
  0
LINE
  5
4E5
  8
_0-1_レイヤ___1
  6
CONTINUOUS
 62
     7
 10
-150.90082000000001
 20
338.30644000000001
 30
0.0
 11
-151.7517599999999
 21
331.15235999999999
 31
0.0
  0
LINE
  5
4E6
  8
_0-1_レイヤ___1
  6
CONTINUOUS
 62
     7
 10
-151.7517599999999
 20
331.15235999999999
 30
0.0
 11
-152.5947699999999
 21
323.99826999999999
 31
0.0
  0
LINE
  5
4E7
  8
_0-1_レイヤ___1
  6
CONTINUOUS
 62
     7
 10
-152.5947699999999
 20
323.99826999999999
 30
0.0
 11
-153.40505999999999
 21
316.84417999999999
 31
0.0
  0
LINE
  5
4E8
  8
_0-1_レイヤ___1
  6
CONTINUOUS
 62
     7
 10
-153.40505999999999
 20
316.84417999999999
 30
0.0
 11
-154.20707999999999
 21
309.64668999999992
 31
0.0
  0
LINE
  5
4E9
  8
_0-1_レイヤ___1
  6
CONTINUOUS
 62
     7
 10
-154.20707999999999
 20
309.64668999999992
 30
0.0
 11
-154.92881999999989
 21
302.49295000000001
 31
0.0
  0
LINE
  5
4EA
  8
_0-1_レイヤ___1
  6
CONTINUOUS
 62
     7
 10
-154.92881999999989
 20
302.49295000000001
 30
0.0
 11
-155.6416099999999
 21
295.3385199999999
 31
0.0
  0
LINE
  5
4EB
  8
_0-1_レイヤ___1
  6
CONTINUOUS
 62
     7
 10
-155.6416099999999
 20
295.3385199999999
 30
0.0
 11
-156.36302000000001
 21
288.14136999999988
 31
0.0
  0
LINE
  5
4EC
  8
_0-1_レイヤ___1
  6
CONTINUOUS
 62
     7
 10
-156.36302000000001
 20
288.14136999999988
 30
0.0
 11
-157.00276999999991
 21
280.98728999999992
 31
0.0
  0
LINE
  5
4ED
  8
_0-1_レイヤ___1
  6
CONTINUOUS
 62
     7
 10
-143.07253099999991
 20
405.74349999999993
 30
0.0
 11
-145.1065099999999
 21
395.9644199999999
 31
0.0
  0
LINE
  5
4EE
  8
_0-1_レイヤ___1
  6
CONTINUOUS
 62
     7
 10
-145.1065099999999
 20
395.9644199999999
 30
0.0
 11
-142.18093999999999
 21
395.37204000000003
 31
0.0
  0
LINE
  5
4EF
  8
_0-1_レイヤ___1
  6
CONTINUOUS
 62
     7
 10
-140.1955319999999
 20
405.1511099999999
 30
0.0
 11
-143.07253099999991
 21
405.74349999999993
 31
0.0
  0
LINE
  5
4F0
  8
_0-1_レイヤ___1
  6
CONTINUOUS
 62
     7
 10
-142.18093999999999
 20
395.37204000000003
 30
0.0
 11
-142.77246299999999
 21
392.40838999999988
 31
0.0
  0
LINE
  5
4F1
  8
_0-1_レイヤ___1
  6
CONTINUOUS
 62
     7
 10
-142.77246299999999
 20
392.40838999999988
 30
0.0
 11
-143.28302600000001
 21
389.48781000000002
 31
0.0
  0
LINE
  5
4F2
  8
_0-1_レイヤ___1
  6
CONTINUOUS
 62
     7
 10
-143.28302600000001
 20
389.48781000000002
 30
0.0
 11
-143.83423999999991
 21
386.56706000000003
 31
0.0
  0
LINE
  5
4F3
  8
_0-1_レイヤ___1
  6
CONTINUOUS
 62
     7
 10
-143.83423999999991
 20
386.56706000000003
 30
0.0
 11
-144.34479999999999
 21
383.60342000000003
 31
0.0
  0
LINE
  5
4F4
  8
_0-1_レイヤ___1
  6
CONTINUOUS
 62
     7
 10
-144.34479999999999
 20
383.60342000000003
 30
0.0
 11
-144.84744000000001
 21
380.68214999999992
 31
0.0
  0
LINE
  5
4F5
  8
_0-1_レイヤ___1
  6
CONTINUOUS
 62
     7
 10
-144.84744000000001
 20
380.68214999999992
 30
0.0
 11
-145.3170099999999
 21
377.76139999999992
 31
0.0
  0
LINE
  5
4F6
  8
_0-1_レイヤ___1
  6
CONTINUOUS
 62
     7
 10
-145.3170099999999
 20
377.76139999999992
 30
0.0
 11
-145.82756999999989
 21
374.79775000000001
 31
0.0
  0
LINE
  5
4F7
  8
_0-1_レイヤ___1
  6
CONTINUOUS
 62
     7
 10
-145.82756999999989
 20
374.79775000000001
 30
0.0
 11
-146.2898999999999
 21
371.87716999999998
 31
0.0
  0
LINE
  5
4F8
  8
_0-1_レイヤ___1
  6
CONTINUOUS
 62
     7
 10
-146.2898999999999
 20
371.87716999999998
 30
0.0
 11
-146.71089000000001
 21
368.91336000000001
 31
0.0
  0
LINE
  5
4F9
  8
_0-1_レイヤ___1
  6
CONTINUOUS
 62
     7
 10
-146.71089000000001
 20
368.91336000000001
 30
0.0
 11
-147.18115
 21
365.95075000000003
 31
0.0
  0
LINE
  5
4FA
  8
_0-1_レイヤ___1
  6
CONTINUOUS
 62
     7
 10
-147.18115
 20
365.95075000000003
 30
0.0
 11
-147.60248000000001
 21
362.9871
 31
0.0
  0
LINE
  5
4FB
  8
_0-1_レイヤ___1
  6
CONTINUOUS
 62
     7
 10
-147.60248000000001
 20
362.9871
 30
0.0
 11
-148.02415999999999
 21
360.06652000000003
 31
0.0
  0
LINE
  5
4FC
  8
_0-1_レイヤ___1
  6
CONTINUOUS
 62
     7
 10
-148.02415999999999
 20
360.06652000000003
 30
0.0
 11
-148.44515000000001
 21
357.14474000000001
 31
0.0
  0
LINE
  5
4FD
  8
_0-1_レイヤ___1
  6
CONTINUOUS
 62
     7
 10
-148.44515000000001
 20
357.14474000000001
 30
0.0
 11
-148.82617999999991
 21
354.18144000000001
 31
0.0
  0
LINE
  5
4FE
  8
_0-1_レイヤ___1
  6
CONTINUOUS
 62
     7
 10
-148.82617999999991
 20
354.18144000000001
 30
0.0
 11
-149.63646999999989
 21
348.25484
 31
0.0
  0
LINE
  5
4FF
  8
_0-1_レイヤ___1
  6
CONTINUOUS
 62
     7
 10
-148.06413000000001
 20
140.8215099999999
 30
0.0
 11
-148.06413000000001
 21
143.82736
 31
0.0
  0
LINE
  5
500
  8
_0-1_レイヤ___1
  6
CONTINUOUS
 62
     7
 10
-138.08024299999991
 20
140.8215099999999
 30
0.0
 11
-138.08024299999991
 21
143.82736
 31
0.0
  0
LINE
  5
501
  8
_0-1_レイヤ___1
  6
CONTINUOUS
 62
     7
 10
-138.08024299999991
 20
143.82736
 30
0.0
 11
-148.06413000000001
 21
143.82736
 31
0.0
  0
LINE
  5
502
  8
_0-1_レイヤ___1
  6
CONTINUOUS
 62
     7
 10
-138.08024299999991
 20
140.8215099999999
 30
0.0
 11
-124.149655
 21
140.8215099999999
 31
0.0
  0
LINE
  5
503
  8
_0-1_レイヤ___1
  6
CONTINUOUS
 62
     7
 10
-136.87474900000001
 20
133.89389
 30
0.0
 11
-188.85330999999999
 21
117.6382
 31
0.0
  0
LINE
  5
504
  8
_0-1_レイヤ___1
  6
CONTINUOUS
 62
     7
 10
-188.85330999999999
 20
117.6382
 30
0.0
 11
-188.85330999999999
 21
112.64281
 31
0.0
  0
LINE
  5
505
  8
_0-1_レイヤ___1
  6
CONTINUOUS
 62
     7
 10
-188.85330999999999
 20
112.64281
 30
0.0
 11
-188.85330999999999
 21
117.6382
 31
0.0
  0
LINE
  5
506
  8
_0-1_レイヤ___1
  6
CONTINUOUS
 62
     7
 10
-188.85330999999999
 20
-198.2963399999999
 30
0.0
 11
-156.8914399999999
 21
-198.2963399999999
 31
0.0
  0
LINE
  5
507
  8
_0-1_レイヤ___1
  6
CONTINUOUS
 62
     7
 10
-155.95920000000001
 20
-183.30947999999989
 30
0.0
 11
-147.15870000000001
 21
-37.047957100000012
 31
0.0
  0
LINE
  5
508
  8
_0-1_レイヤ___1
  6
CONTINUOUS
 62
     7
 10
-158.96608000000001
 20
-183.13998000000001
 30
0.0
 11
-159.56586999999999
 21
-193.13076000000001
 31
0.0
  0
LINE
  5
509
  8
_0-1_レイヤ___1
  6
CONTINUOUS
 62
     7
 10
-159.56586999999999
 20
-193.13076000000001
 30
0.0
 11
-156.55898999999991
 21
-193.30026000000001
 31
0.0
  0
LINE
  5
50A
  8
_0-1_レイヤ___1
  6
CONTINUOUS
 62
     7
 10
-158.96608000000001
 20
-183.13998000000001
 30
0.0
 11
-155.95920000000001
 21
-183.30947999999989
 31
0.0
  0
LINE
  5
50B
  8
_0-1_レイヤ___1
  6
CONTINUOUS
 62
     7
 10
-149.57371000000001
 20
-26.888371199999991
 30
0.0
 11
-146.5668299999999
 21
-27.057869199999988
 31
0.0
  0
LINE
  5
50C
  8
_0-1_レイヤ___1
  6
CONTINUOUS
 62
     7
 10
-147.15870000000001
 20
-37.047957100000012
 30
0.0
 11
-150.16523000000001
 21
-36.878459100000001
 31
0.0
  0
LINE
  5
50D
  8
_0-1_レイヤ___1
  6
CONTINUOUS
 62
     7
 10
-150.16523000000001
 20
-36.878459100000001
 30
0.0
 11
-149.57371000000001
 21
-26.888371199999991
 31
0.0
  0
LINE
  5
50E
  8
_0-1_レイヤ___1
  6
CONTINUOUS
 62
     7
 10
-146.5668299999999
 20
-27.057869199999988
 30
0.0
 11
-137.758072
 21
119.2046899999999
 31
0.0
  0
LINE
  5
50F
  8
_0-1_レイヤ___1
  6
CONTINUOUS
 62
     7
 10
-140.76460700000001
 20
119.3731499999999
 30
0.0
 11
-140.17273900000001
 21
129.36461999999989
 31
0.0
  0
LINE
  5
510
  8
_0-1_レイヤ___1
  6
CONTINUOUS
 62
     7
 10
-140.17273900000001
 20
129.36461999999989
 30
0.0
 11
-137.166549
 21
129.15206000000001
 31
0.0
  0
LINE
  5
511
  8
_0-1_レイヤ___1
  6
CONTINUOUS
 62
     7
 10
-137.166549
 20
129.15206000000001
 30
0.0
 11
-136.87474900000001
 21
133.89389
 31
0.0
  0
LINE
  5
512
  8
_0-1_レイヤ___1
  6
CONTINUOUS
 62
     7
 10
-140.76460700000001
 20
119.3731499999999
 30
0.0
 11
-137.758072
 21
119.2046899999999
 31
0.0
  0
LINE
  5
513
  8
_0-1_レイヤ___1
  6
CONTINUOUS
 62
     7
 10
-156.55898999999991
 20
-193.30026000000001
 30
0.0
 11
-156.8914399999999
 21
-198.2963399999999
 31
0.0
  0
LINE
  5
514
  8
_0-1_レイヤ___1
  6
CONTINUOUS
 62
     7
 10
-188.85330999999999
 20
-188.30486999999991
 30
0.0
 11
-191.85984999999991
 21
-188.30486999999991
 31
0.0
  0
LINE
  5
515
  8
_0-1_レイヤ___1
  6
CONTINUOUS
 62
     7
 10
-191.85984999999991
 20
-188.30486999999991
 30
0.0
 11
-191.85984999999991
 21
-198.2963399999999
 31
0.0
  0
LINE
  5
516
  8
_0-1_レイヤ___1
  6
CONTINUOUS
 62
     7
 10
-191.85984999999991
 20
-198.2963399999999
 30
0.0
 11
-188.85330999999999
 21
-198.2963399999999
 31
0.0
  0
LINE
  5
517
  8
_0-1_レイヤ___1
  6
CONTINUOUS
 62
     7
 10
-191.85984999999991
 20
-26.888371199999991
 30
0.0
 11
-191.85984999999991
 21
-36.878459100000001
 31
0.0
  0
LINE
  5
518
  8
_0-1_レイヤ___1
  6
CONTINUOUS
 62
     7
 10
-191.85984999999991
 20
-36.878459100000001
 30
0.0
 11
-188.85330999999999
 21
-36.878459100000001
 31
0.0
  0
LINE
  5
519
  8
_0-1_レイヤ___1
  6
CONTINUOUS
 62
     7
 10
-188.85330999999999
 20
-26.888371199999991
 30
0.0
 11
-191.85984999999991
 21
-26.888371199999991
 31
0.0
  0
LINE
  5
51A
  8
_0-1_レイヤ___1
  6
CONTINUOUS
 62
     7
 10
-188.85330999999999
 20
112.64281
 30
0.0
 11
-191.85984999999991
 21
112.64281
 31
0.0
  0
LINE
  5
51B
  8
_0-1_レイヤ___1
  6
CONTINUOUS
 62
     7
 10
-188.85330999999999
 20
102.65134999999989
 30
0.0
 11
-191.85984999999991
 21
102.65134999999989
 31
0.0
  0
LINE
  5
51C
  8
_0-1_レイヤ___1
  6
CONTINUOUS
 62
     7
 10
-191.85984999999991
 20
102.65134999999989
 30
0.0
 11
-191.85984999999991
 21
112.64281
 31
0.0
  0
LINE
  5
51D
  8
_0-1_レイヤ___1
  6
CONTINUOUS
 62
     7
 10
-188.85330999999999
 20
102.65134999999989
 30
0.0
 11
-188.85330999999999
 21
-26.888371199999991
 31
0.0
  0
LINE
  5
51E
  8
_0-1_レイヤ___1
  6
CONTINUOUS
 62
     7
 10
-188.85330999999999
 20
-36.878459100000001
 30
0.0
 11
-188.85330999999999
 21
-188.30486999999991
 31
0.0
  0
LINE
  5
51F
  8
_0-1_レイヤ___1
  6
CONTINUOUS
 62
     7
 10
-221.20097000000001
 20
404.68340999999992
 30
0.0
 11
-220.56879000000001
 21
403.58321999999993
 31
0.0
  0
LINE
  5
520
  8
_0-1_レイヤ___1
  6
CONTINUOUS
 62
     7
 10
-220.56879000000001
 20
403.58321999999993
 30
0.0
 11
-219.93696
 21
402.48182999999989
 31
0.0
  0
LINE
  5
521
  8
_0-1_レイヤ___1
  6
CONTINUOUS
 62
     7
 10
-219.93696
 20
402.48182999999989
 30
0.0
 11
-219.3371699999999
 21
401.38112000000001
 31
0.0
  0
LINE
  5
522
  8
_0-1_レイヤ___1
  6
CONTINUOUS
 62
     7
 10
-219.3371699999999
 20
401.38112000000001
 30
0.0
 11
-218.74565000000001
 21
400.28075000000001
 31
0.0
  0
LINE
  5
523
  8
_0-1_レイヤ___1
  6
CONTINUOUS
 62
     7
 10
-175.05735999999999
 20
139.67651000000001
 30
0.0
 11
-182.68272999999991
 21
137.22119000000001
 31
0.0
  0
LINE
  5
524
  8
_0-1_レイヤ___1
  6
CONTINUOUS
 62
     7
 10
-238.04885999999999
 20
406.80041999999992
 30
0.0
 11
-221.20097000000001
 21
404.68340999999992
 31
0.0
  0
LINE
  5
525
  8
_0-1_レイヤ___1
  6
CONTINUOUS
 62
     7
 10
-175.14624000000001
 20
154.70436000000001
 30
0.0
 11
-178.15278000000001
 21
154.66233
 31
0.0
  0
LINE
  5
526
  8
_0-1_レイヤ___1
  6
CONTINUOUS
 62
     7
 10
-178.15278000000001
 20
154.66233
 30
0.0
 11
-178.06354999999991
 21
144.67188999999999
 31
0.0
  0
LINE
  5
527
  8
_0-1_レイヤ___1
  6
CONTINUOUS
 62
     7
 10
-178.06354999999991
 20
144.67188999999999
 30
0.0
 11
-175.10559000000001
 21
144.67188999999999
 31
0.0
  0
LINE
  5
528
  8
_0-1_レイヤ___1
  6
CONTINUOUS
 62
     7
 10
-175.10559000000001
 20
144.67188999999999
 30
0.0
 11
-175.05735999999999
 21
142.2165699999999
 31
0.0
  0
LINE
  5
529
  8
_0-1_レイヤ___1
  6
CONTINUOUS
 62
     7
 10
-175.05735999999999
 20
142.2165699999999
 30
0.0
 11
-175.05735999999999
 21
139.67651000000001
 31
0.0
  0
LINE
  5
52A
  8
_0-1_レイヤ___1
  6
CONTINUOUS
 62
     7
 10
-178.6147599999999
 20
212.32047999999989
 30
0.0
 11
-181.58064999999991
 21
211.98147999999989
 31
0.0
  0
LINE
  5
52B
  8
_0-1_レイヤ___1
  6
CONTINUOUS
 62
     7
 10
-181.58064999999991
 20
211.98147999999989
 30
0.0
 11
-180.5598599999999
 21
202.0330799999999
 31
0.0
  0
LINE
  5
52C
  8
_0-1_レイヤ___1
  6
CONTINUOUS
 62
     7
 10
-180.5598599999999
 20
202.0330799999999
 30
0.0
 11
-177.56124999999989
 21
202.37173000000001
 31
0.0
  0
LINE
  5
52D
  8
_0-1_レイヤ___1
  6
CONTINUOUS
 62
     7
 10
-177.56124999999989
 20
202.37173000000001
 30
0.0
 11
-177.30183999999991
 21
199.40895
 31
0.0
  0
LINE
  5
52E
  8
_0-1_レイヤ___1
  6
CONTINUOUS
 62
     7
 10
-177.30183999999991
 20
199.40895
 30
0.0
 11
-177.01038
 21
196.40344999999991
 31
0.0
  0
LINE
  5
52F
  8
_0-1_レイヤ___1
  6
CONTINUOUS
 62
     7
 10
-177.01038
 20
196.40344999999991
 30
0.0
 11
-176.75096999999991
 21
193.43962999999991
 31
0.0
  0
LINE
  5
530
  8
_0-1_レイヤ___1
  6
CONTINUOUS
 62
     7
 10
-176.75096999999991
 20
193.43962999999991
 30
0.0
 11
-176.49981999999989
 21
190.47615999999999
 31
0.0
  0
LINE
  5
531
  8
_0-1_レイヤ___1
  6
CONTINUOUS
 62
     7
 10
-176.49981999999989
 20
190.47615999999999
 30
0.0
 11
-176.28898000000001
 21
187.51338000000001
 31
0.0
  0
LINE
  5
532
  8
_0-1_レイヤ___1
  6
CONTINUOUS
 62
     7
 10
-176.28898000000001
 20
187.51338000000001
 30
0.0
 11
-176.07813999999991
 21
184.50752999999989
 31
0.0
  0
LINE
  5
533
  8
_0-1_レイヤ___1
  6
CONTINUOUS
 62
     7
 10
-176.07813999999991
 20
184.50752999999989
 30
0.0
 11
-175.98926
 21
183.02613999999991
 31
0.0
  0
LINE
  5
534
  8
_0-1_レイヤ___1
  6
CONTINUOUS
 62
     7
 10
-175.98926
 20
183.02613999999991
 30
0.0
 11
-175.90795
 21
181.50168999999991
 31
0.0
  0
LINE
  5
535
  8
_0-1_レイヤ___1
  6
CONTINUOUS
 62
     7
 10
-175.90795
 20
181.50168999999991
 30
0.0
 11
-175.8187199999999
 21
180.02029999999991
 31
0.0
  0
LINE
  5
536
  8
_0-1_レイヤ___1
  6
CONTINUOUS
 62
     7
 10
-175.8187199999999
 20
180.02029999999991
 30
0.0
 11
-175.73775999999989
 21
178.53821999999991
 31
0.0
  0
LINE
  5
537
  8
_0-1_レイヤ___1
  6
CONTINUOUS
 62
     7
 10
-175.73775999999989
 20
178.53821999999991
 30
0.0
 11
-175.60822999999991
 21
175.61745999999999
 31
0.0
  0
LINE
  5
538
  8
_0-1_レイヤ___1
  6
CONTINUOUS
 62
     7
 10
-175.60822999999991
 20
175.61745999999999
 30
0.0
 11
-175.56757999999999
 21
174.1360699999999
 31
0.0
  0
LINE
  5
539
  8
_0-1_レイヤ___1
  6
CONTINUOUS
 62
     7
 10
-175.56757999999999
 20
174.1360699999999
 30
0.0
 11
-175.48661999999999
 21
172.6116199999999
 31
0.0
  0
LINE
  5
53A
  8
_0-1_レイヤ___1
  6
CONTINUOUS
 62
     7
 10
-175.48661999999999
 20
172.6116199999999
 30
0.0
 11
-175.39773
 21
169.60612
 31
0.0
  0
LINE
  5
53B
  8
_0-1_レイヤ___1
  6
CONTINUOUS
 62
     7
 10
-175.39773
 20
169.60612
 30
0.0
 11
-175.35708
 21
166.64298999999991
 31
0.0
  0
LINE
  5
53C
  8
_0-1_レイヤ___1
  6
CONTINUOUS
 62
     7
 10
-175.35708
 20
166.64298999999991
 30
0.0
 11
-175.26785000000001
 21
163.67985999999991
 31
0.0
  0
LINE
  5
53D
  8
_0-1_レイヤ___1
  6
CONTINUOUS
 62
     7
 10
-175.26785000000001
 20
163.67985999999991
 30
0.0
 11
-175.22720000000001
 21
160.6736699999999
 31
0.0
  0
LINE
  5
53E
  8
_0-1_レイヤ___1
  6
CONTINUOUS
 62
     7
 10
-175.22720000000001
 20
160.6736699999999
 30
0.0
 11
-175.18655000000001
 21
157.71055000000001
 31
0.0
  0
LINE
  5
53F
  8
_0-1_レイヤ___1
  6
CONTINUOUS
 62
     7
 10
-175.18655000000001
 20
157.71055000000001
 30
0.0
 11
-175.14624000000001
 21
154.70436000000001
 31
0.0
  0
LINE
  5
540
  8
_0-1_レイヤ___1
  6
CONTINUOUS
 62
     7
 10
-187.42386999999999
 20
279.33413000000002
 30
0.0
 11
-190.38149000000001
 21
278.86801000000003
 31
0.0
  0
LINE
  5
541
  8
_0-1_レイヤ___1
  6
CONTINUOUS
 62
     7
 10
-190.38149000000001
 20
278.86801000000003
 30
0.0
 11
-188.85840999999991
 21
269.00470000000001
 31
0.0
  0
LINE
  5
542
  8
_0-1_レイヤ___1
  6
CONTINUOUS
 62
     7
 10
-188.85840999999991
 20
269.00470000000001
 30
0.0
 11
-185.90011000000001
 21
269.47081999999989
 31
0.0
  0
LINE
  5
543
  8
_0-1_レイヤ___1
  6
CONTINUOUS
 62
     7
 10
-185.90011000000001
 20
269.47081999999989
 30
0.0
 11
-185.38989000000001
 21
265.91478999999993
 31
0.0
  0
LINE
  5
544
  8
_0-1_レイヤ___1
  6
CONTINUOUS
 62
     7
 10
-185.38989000000001
 20
265.91478999999993
 30
0.0
 11
-184.87933000000001
 21
262.31569999999988
 31
0.0
  0
LINE
  5
545
  8
_0-1_レイヤ___1
  6
CONTINUOUS
 62
     7
 10
-184.87933000000001
 20
262.31569999999988
 30
0.0
 11
-184.37669
 21
258.76002
 31
0.0
  0
LINE
  5
546
  8
_0-1_レイヤ___1
  6
CONTINUOUS
 62
     7
 10
-184.37669
 20
258.76002
 30
0.0
 11
-184.11726999999991
 21
256.98165999999992
 31
0.0
  0
LINE
  5
547
  8
_0-1_レイヤ___1
  6
CONTINUOUS
 62
     7
 10
-184.11726999999991
 20
256.98165999999992
 30
0.0
 11
-183.90676999999999
 21
255.20399
 31
0.0
  0
LINE
  5
548
  8
_0-1_レイヤ___1
  6
CONTINUOUS
 62
     7
 10
-183.90676999999999
 20
255.20399
 30
0.0
 11
-183.65562999999989
 21
253.38359999999989
 31
0.0
  0
LINE
  5
549
  8
_0-1_レイヤ___1
  6
CONTINUOUS
 62
     7
 10
-183.65562999999989
 20
253.38359999999989
 30
0.0
 11
-183.39620999999991
 21
251.64796999999999
 31
0.0
  0
LINE
  5
54A
  8
_0-1_レイヤ___1
  6
CONTINUOUS
 62
     7
 10
-183.39620999999991
 20
251.64796999999999
 30
0.0
 11
-183.27459999999999
 21
250.71675999999991
 31
0.0
  0
LINE
  5
54B
  8
_0-1_レイヤ___1
  6
CONTINUOUS
 62
     7
 10
-183.27459999999999
 20
250.71675999999991
 30
0.0
 11
-183.18537000000001
 21
249.82792000000001
 31
0.0
  0
LINE
  5
54C
  8
_0-1_レイヤ___1
  6
CONTINUOUS
 62
     7
 10
-183.18537000000001
 20
249.82792000000001
 30
0.0
 11
-183.10441
 21
249.40486000000001
 31
0.0
  0
LINE
  5
54D
  8
_0-1_レイヤ___1
  6
CONTINUOUS
 62
     7
 10
-183.10441
 20
249.40486000000001
 30
0.0
 11
-183.06376
 21
248.93874
 31
0.0
  0
LINE
  5
54E
  8
_0-1_レイヤ___1
  6
CONTINUOUS
 62
     7
 10
-183.06376
 20
248.93874
 30
0.0
 11
-182.93387999999999
 21
248.00787999999989
 31
0.0
  0
LINE
  5
54F
  8
_0-1_レイヤ___1
  6
CONTINUOUS
 62
     7
 10
-182.93387999999999
 20
248.00787999999989
 30
0.0
 11
-182.89392000000001
 21
247.58448000000001
 31
0.0
  0
LINE
  5
550
  8
_0-1_レイヤ___1
  6
CONTINUOUS
 62
     7
 10
-182.89392000000001
 20
247.58448000000001
 30
0.0
 11
-182.845
 21
247.33022999999989
 31
0.0
  0
LINE
  5
551
  8
_0-1_レイヤ___1
  6
CONTINUOUS
 62
     7
 10
-182.845
 20
247.33022999999989
 30
0.0
 11
-182.80468999999999
 21
247.16072999999989
 31
0.0
  0
LINE
  5
552
  8
_0-1_レイヤ___1
  6
CONTINUOUS
 62
     7
 10
-182.80468999999999
 20
247.16072999999989
 30
0.0
 11
-182.76403999999991
 21
246.6953
 31
0.0
  0
LINE
  5
553
  8
_0-1_レイヤ___1
  6
CONTINUOUS
 62
     7
 10
-182.76403999999991
 20
246.6953
 30
0.0
 11
-182.72337999999991
 21
246.27189000000001
 31
0.0
  0
LINE
  5
554
  8
_0-1_レイヤ___1
  6
CONTINUOUS
 62
     7
 10
-182.72337999999991
 20
246.27189000000001
 30
0.0
 11
-182.59385
 21
245.34034
 31
0.0
  0
LINE
  5
555
  8
_0-1_レイヤ___1
  6
CONTINUOUS
 62
     7
 10
-182.59385
 20
245.34034
 30
0.0
 11
-182.46431000000001
 21
244.45185000000001
 31
0.0
  0
LINE
  5
556
  8
_0-1_レイヤ___1
  6
CONTINUOUS
 62
     7
 10
-182.46431000000001
 20
244.45185000000001
 30
0.0
 11
-182.25346999999999
 21
242.71587
 31
0.0
  0
LINE
  5
557
  8
_0-1_レイヤ___1
  6
CONTINUOUS
 62
     7
 10
-182.25346999999999
 20
242.71587
 30
0.0
 11
-182.1318599999999
 21
241.82669000000001
 31
0.0
  0
LINE
  5
558
  8
_0-1_レイヤ___1
  6
CONTINUOUS
 62
     7
 10
-182.1318599999999
 20
241.82669000000001
 30
0.0
 11
-182.00233
 21
240.93785
 31
0.0
  0
LINE
  5
559
  8
_0-1_レイヤ___1
  6
CONTINUOUS
 62
     7
 10
-182.00233
 20
240.93785
 30
0.0
 11
-181.58064999999991
 21
237.33944999999991
 31
0.0
  0
LINE
  5
55A
  8
_0-1_レイヤ___1
  6
CONTINUOUS
 62
     7
 10
-181.58064999999991
 20
237.33944999999991
 30
0.0
 11
-181.11073999999999
 21
233.74139
 31
0.0
  0
LINE
  5
55B
  8
_0-1_レイヤ___1
  6
CONTINUOUS
 62
     7
 10
-181.11073999999999
 20
233.74139
 30
0.0
 11
-180.68939999999989
 21
230.18537000000001
 31
0.0
  0
LINE
  5
55C
  8
_0-1_レイヤ___1
  6
CONTINUOUS
 62
     7
 10
-180.68939999999989
 20
230.18537000000001
 30
0.0
 11
-180.26805999999999
 21
226.58730999999989
 31
0.0
  0
LINE
  5
55D
  8
_0-1_レイヤ___1
  6
CONTINUOUS
 62
     7
 10
-180.26805999999999
 20
226.58730999999989
 30
0.0
 11
-179.84639000000001
 21
223.03128000000001
 31
0.0
  0
LINE
  5
55E
  8
_0-1_レイヤ___1
  6
CONTINUOUS
 62
     7
 10
-179.84639000000001
 20
223.03128000000001
 30
0.0
 11
-179.4171299999999
 21
219.4752499999999
 31
0.0
  0
LINE
  5
55F
  8
_0-1_レイヤ___1
  6
CONTINUOUS
 62
     7
 10
-179.4171299999999
 20
219.4752499999999
 30
0.0
 11
-178.99579
 21
215.87651
 31
0.0
  0
LINE
  5
560
  8
_0-1_レイヤ___1
  6
CONTINUOUS
 62
     7
 10
-178.99579
 20
215.87651
 30
0.0
 11
-178.6147599999999
 21
212.32047999999989
 31
0.0
  0
LINE
  5
561
  8
_0-1_レイヤ___1
  6
CONTINUOUS
 62
     7
 10
-200.37398999999991
 20
345.45895000000002
 30
0.0
 11
-203.25098999999989
 21
344.82366999999988
 31
0.0
  0
LINE
  5
562
  8
_0-1_レイヤ___1
  6
CONTINUOUS
 62
     7
 10
-203.25098999999989
 20
344.82366999999988
 30
0.0
 11
-201.05439000000001
 21
335.04477000000009
 31
0.0
  0
LINE
  5
563
  8
_0-1_レイヤ___1
  6
CONTINUOUS
 62
     7
 10
-201.05439000000001
 20
335.04477000000009
 30
0.0
 11
-198.17774
 21
335.72208000000001
 31
0.0
  0
LINE
  5
564
  8
_0-1_レイヤ___1
  6
CONTINUOUS
 62
     7
 10
-198.17774
 20
335.72208000000001
 30
0.0
 11
-197.40776
 21
332.20841999999988
 31
0.0
  0
LINE
  5
565
  8
_0-1_レイヤ___1
  6
CONTINUOUS
 62
     7
 10
-197.40776
 20
332.20841999999988
 30
0.0
 11
-196.64605
 21
328.69546000000003
 31
0.0
  0
LINE
  5
566
  8
_0-1_レイヤ___1
  6
CONTINUOUS
 62
     7
 10
-196.64605
 20
328.69546000000003
 30
0.0
 11
-195.21186
 21
321.66746000000001
 31
0.0
  0
LINE
  5
567
  8
_0-1_レイヤ___1
  6
CONTINUOUS
 62
     7
 10
-195.21186
 20
321.66746000000001
 30
0.0
 11
-193.80969999999991
 21
314.59778
 31
0.0
  0
LINE
  5
568
  8
_0-1_レイヤ___1
  6
CONTINUOUS
 62
     7
 10
-193.80969999999991
 20
314.59778
 30
0.0
 11
-192.45612
 21
307.57082000000008
 31
0.0
  0
LINE
  5
569
  8
_0-1_レイヤ___1
  6
CONTINUOUS
 62
     7
 10
-192.45612
 20
307.57082000000008
 30
0.0
 11
-191.14354
 21
300.54316999999992
 31
0.0
  0
LINE
  5
56A
  8
_0-1_レイヤ___1
  6
CONTINUOUS
 62
     7
 10
-191.14354
 20
300.54316999999992
 30
0.0
 11
-189.87918999999991
 21
293.47417999999988
 31
0.0
  0
LINE
  5
56B
  8
_0-1_レイヤ___1
  6
CONTINUOUS
 62
     7
 10
-189.87918999999991
 20
293.47417999999988
 30
0.0
 11
-188.64757
 21
286.40415999999988
 31
0.0
  0
LINE
  5
56C
  8
_0-1_レイヤ___1
  6
CONTINUOUS
 62
     7
 10
-188.64757
 20
286.40415999999988
 30
0.0
 11
-187.46418
 21
279.33413000000002
 31
0.0
  0
LINE
  5
56D
  8
_0-1_レイヤ___1
  6
CONTINUOUS
 62
     7
 10
-221.4603799999999
 20
399.01071999999999
 30
0.0
 11
-217.18123
 21
389.99335000000002
 31
0.0
  0
LINE
  5
56E
  8
_0-1_レイヤ___1
  6
CONTINUOUS
 62
     7
 10
-217.18123
 20
389.99335000000002
 30
0.0
 11
-214.47476
 21
391.26339000000002
 31
0.0
  0
LINE
  5
56F
  8
_0-1_レイヤ___1
  6
CONTINUOUS
 62
     7
 10
-218.74565000000001
 20
400.28075000000001
 30
0.0
 11
-221.4603799999999
 21
399.01071999999999
 31
0.0
  0
LINE
  5
570
  8
_0-1_レイヤ___1
  6
CONTINUOUS
 62
     7
 10
-214.47476
 20
391.26339000000002
 30
0.0
 11
-213.92355000000001
 21
389.86709000000002
 31
0.0
  0
LINE
  5
571
  8
_0-1_レイヤ___1
  6
CONTINUOUS
 62
     7
 10
-213.92355000000001
 20
389.86709000000002
 30
0.0
 11
-213.33237
 21
388.4701
 31
0.0
  0
LINE
  5
572
  8
_0-1_レイヤ___1
  6
CONTINUOUS
 62
     7
 10
-213.33237
 20
388.4701
 30
0.0
 11
-212.22994
 21
385.67579000000001
 31
0.0
  0
LINE
  5
573
  8
_0-1_レイヤ___1
  6
CONTINUOUS
 62
     7
 10
-212.22994
 20
385.67579000000001
 30
0.0
 11
-211.16815999999989
 21
382.88146999999992
 31
0.0
  0
LINE
  5
574
  8
_0-1_レイヤ___1
  6
CONTINUOUS
 62
     7
 10
-211.16815999999989
 20
382.88146999999992
 30
0.0
 11
-210.15530000000001
 21
380.04511999999988
 31
0.0
  0
LINE
  5
575
  8
_0-1_レイヤ___1
  6
CONTINUOUS
 62
     7
 10
-210.15530000000001
 20
380.04511999999988
 30
0.0
 11
-209.18274999999991
 21
377.20877999999988
 31
0.0
  0
LINE
  5
576
  8
_0-1_レイヤ___1
  6
CONTINUOUS
 62
     7
 10
-209.18274999999991
 20
377.20877999999988
 30
0.0
 11
-208.25085000000001
 21
374.37243000000001
 31
0.0
  0
LINE
  5
577
  8
_0-1_レイヤ___1
  6
CONTINUOUS
 62
     7
 10
-208.25085000000001
 20
374.37243000000001
 30
0.0
 11
-207.35926000000001
 21
371.53608000000003
 31
0.0
  0
LINE
  5
578
  8
_0-1_レイヤ___1
  6
CONTINUOUS
 62
     7
 10
-207.35926000000001
 20
371.53608000000003
 30
0.0
 11
-206.46802
 21
368.65735999999998
 31
0.0
  0
LINE
  5
579
  8
_0-1_レイヤ___1
  6
CONTINUOUS
 62
     7
 10
-206.46802
 20
368.65735999999998
 30
0.0
 11
-205.66565
 21
365.82118999999989
 31
0.0
  0
LINE
  5
57A
  8
_0-1_レイヤ___1
  6
CONTINUOUS
 62
     7
 10
-205.66565
 20
365.82118999999989
 30
0.0
 11
-204.82298
 21
362.94245999999998
 31
0.0
  0
LINE
  5
57B
  8
_0-1_レイヤ___1
  6
CONTINUOUS
 62
     7
 10
-204.82298
 20
362.94245999999998
 30
0.0
 11
-204.01234999999991
 21
360.02170999999998
 31
0.0
  0
LINE
  5
57C
  8
_0-1_レイヤ___1
  6
CONTINUOUS
 62
     7
 10
-204.01234999999991
 20
360.02170999999998
 30
0.0
 11
-203.25098999999989
 21
357.14350999999988
 31
0.0
  0
LINE
  5
57D
  8
_0-1_レイヤ___1
  6
CONTINUOUS
 62
     7
 10
-203.25098999999989
 20
357.14350999999988
 30
0.0
 11
-202.48893000000001
 21
354.22172
 31
0.0
  0
LINE
  5
57E
  8
_0-1_レイヤ___1
  6
CONTINUOUS
 62
     7
 10
-202.48893000000001
 20
354.22172
 30
0.0
 11
-201.7758
 21
351.30113999999992
 31
0.0
  0
LINE
  5
57F
  8
_0-1_レイヤ___1
  6
CONTINUOUS
 62
     7
 10
-201.7758
 20
351.30113999999992
 30
0.0
 11
-201.05439000000001
 21
348.37970000000001
 31
0.0
  0
LINE
  5
580
  8
_0-1_レイヤ___1
  6
CONTINUOUS
 62
     7
 10
-201.05439000000001
 20
348.37970000000001
 30
0.0
 11
-200.37398999999991
 21
345.45895000000002
 31
0.0
  0
LINE
  5
581
  8
_0-1_レイヤ___1
  6
CONTINUOUS
 62
     7
 10
-253.7547099999999
 20
228.8724399999999
 30
0.0
 11
-253.80327999999989
 21
233.61392000000001
 31
0.0
  0
LINE
  5
582
  8
_0-1_レイヤ___1
  6
CONTINUOUS
 62
     7
 10
-253.80327999999989
 20
233.61392000000001
 30
0.0
 11
-253.7547099999999
 21
238.48218999999989
 31
0.0
  0
LINE
  5
583
  8
_0-1_レイヤ___1
  6
CONTINUOUS
 62
     7
 10
-253.7547099999999
 20
238.48218999999989
 30
0.0
 11
-253.50322
 21
248.04991000000001
 31
0.0
  0
LINE
  5
584
  8
_0-1_レイヤ___1
  6
CONTINUOUS
 62
     7
 10
-253.50322
 20
248.04991000000001
 30
0.0
 11
-253.1221899999999
 21
257.65931
 31
0.0
  0
LINE
  5
585
  8
_0-1_レイヤ___1
  6
CONTINUOUS
 62
     7
 10
-253.1221899999999
 20
257.65931
 30
0.0
 11
-252.61197000000001
 21
267.22703000000001
 31
0.0
  0
LINE
  5
586
  8
_0-1_レイヤ___1
  6
CONTINUOUS
 62
     7
 10
-252.61197000000001
 20
267.22703000000001
 30
0.0
 11
-252.06075000000001
 21
276.83677999999992
 31
0.0
  0
LINE
  5
587
  8
_0-1_レイヤ___1
  6
CONTINUOUS
 62
     7
 10
-252.06075000000001
 20
276.83677999999992
 30
0.0
 11
-251.38827000000001
 21
286.44619
 31
0.0
  0
LINE
  5
588
  8
_0-1_レイヤ___1
  6
CONTINUOUS
 62
     7
 10
-251.38827000000001
 20
286.44619
 30
0.0
 11
-250.66721000000001
 21
295.97152999999992
 31
0.0
  0
LINE
  5
589
  8
_0-1_レイヤ___1
  6
CONTINUOUS
 62
     7
 10
-250.66721000000001
 20
295.97152999999992
 30
0.0
 11
-249.82384999999991
 21
305.53856000000002
 31
0.0
  0
LINE
  5
58A
  8
_0-1_レイヤ___1
  6
CONTINUOUS
 62
     7
 10
-253.04123000000001
 20
129.21995000000001
 30
0.0
 11
-253.67339999999999
 21
218.88201000000001
 31
0.0
  0
LINE
  5
58B
  8
_0-1_レイヤ___1
  6
CONTINUOUS
 62
     7
 10
-252.95233999999991
 20
114.23412999999999
 30
0.0
 11
-252.99299999999991
 21
119.22951999999999
 31
0.0
  0
LINE
  5
58C
  8
_0-1_レイヤ___1
  6
CONTINUOUS
 62
     7
 10
-256.03984000000003
 20
129.21995000000001
 30
0.0
 11
-253.04123000000001
 21
129.21995000000001
 31
0.0
  0
LINE
  5
58D
  8
_0-1_レイヤ___1
  6
CONTINUOUS
 62
     7
 10
-252.99299999999991
 20
119.22951999999999
 30
0.0
 11
-255.95887999999991
 21
119.1874899999999
 31
0.0
  0
LINE
  5
58E
  8
_0-1_レイヤ___1
  6
CONTINUOUS
 62
     7
 10
-255.95887999999991
 20
119.1874899999999
 30
0.0
 11
-256.03984000000003
 21
129.21995000000001
 31
0.0
  0
LINE
  5
58F
  8
_0-1_レイヤ___1
  6
CONTINUOUS
 62
     7
 10
-256.76089999999999
 20
228.83040999999989
 30
0.0
 11
-256.68027999999998
 21
218.83962999999989
 31
0.0
  0
LINE
  5
590
  8
_0-1_レイヤ___1
  6
CONTINUOUS
 62
     7
 10
-256.68027999999998
 20
218.83962999999989
 30
0.0
 11
-253.67339999999999
 21
218.88201000000001
 31
0.0
  0
LINE
  5
591
  8
_0-1_レイヤ___1
  6
CONTINUOUS
 62
     7
 10
-256.76089999999999
 20
228.83040999999989
 30
0.0
 11
-253.7547099999999
 21
228.8724399999999
 31
0.0
  0
LINE
  5
592
  8
_0-1_レイヤ___1
  6
CONTINUOUS
 62
     7
 10
-248.93295000000001
 20
315.48662000000002
 30
0.0
 11
-246.93927999999991
 21
334.66374000000002
 31
0.0
  0
LINE
  5
593
  8
_0-1_レイヤ___1
  6
CONTINUOUS
 62
     7
 10
-246.93927999999991
 20
334.66374000000002
 30
0.0
 11
-244.74268000000001
 21
353.75612000000001
 31
0.0
  0
LINE
  5
594
  8
_0-1_レイヤ___1
  6
CONTINUOUS
 62
     7
 10
-244.74268000000001
 20
353.75612000000001
 30
0.0
 11
-242.36832000000001
 21
372.80680999999993
 31
0.0
  0
LINE
  5
595
  8
_0-1_レイヤ___1
  6
CONTINUOUS
 62
     7
 10
-242.36832000000001
 20
372.80680999999993
 30
0.0
 11
-239.9129999999999
 21
391.89884000000001
 31
0.0
  0
LINE
  5
596
  8
_0-1_レイヤ___1
  6
CONTINUOUS
 62
     7
 10
-251.89849000000001
 20
315.78359
 30
0.0
 11
-252.82246000000001
 21
305.83483999999987
 31
0.0
  0
LINE
  5
597
  8
_0-1_レイヤ___1
  6
CONTINUOUS
 62
     7
 10
-252.82246000000001
 20
305.83483999999987
 30
0.0
 11
-249.82384999999991
 21
305.53856000000002
 31
0.0
  0
LINE
  5
598
  8
_0-1_レイヤ___1
  6
CONTINUOUS
 62
     7
 10
-248.93295000000001
 20
315.48662000000002
 30
0.0
 11
-251.89849000000001
 21
315.78359
 31
0.0
  0
LINE
  5
599
  8
_0-1_レイヤ___1
  6
CONTINUOUS
 62
     7
 10
-241.64725999999999
 20
402.18572
 30
0.0
 11
-242.83858000000001
 21
392.27985999999999
 31
0.0
  0
LINE
  5
59A
  8
_0-1_レイヤ___1
  6
CONTINUOUS
 62
     7
 10
-242.83858000000001
 20
392.27985999999999
 30
0.0
 11
-239.9129999999999
 21
391.89884000000001
 31
0.0
  0
LINE
  5
59B
  8
_0-1_レイヤ___1
  6
CONTINUOUS
 62
     7
 10
-238.04885999999999
 20
406.80041999999992
 30
0.0
 11
-238.6893
 21
401.84706999999992
 31
0.0
  0
LINE
  5
59C
  8
_0-1_レイヤ___1
  6
CONTINUOUS
 62
     7
 10
-238.6893
 20
401.84706999999992
 30
0.0
 11
-241.64725999999999
 21
402.18572
 31
0.0
  0
LINE
  5
59D
  8
_0-1_レイヤ___1
  6
CONTINUOUS
 62
     7
 10
-252.95233999999991
 20
114.23412999999999
 30
0.0
 11
-248.21119999999991
 21
115.75790000000001
 31
0.0
  0
LINE
  5
59E
  8
_0-1_レイヤ___1
  6
CONTINUOUS
 62
     7
 10
-248.21119999999991
 20
115.75790000000001
 30
0.0
 11
-249.14345
 21
118.63696
 31
0.0
  0
LINE
  5
59F
  8
_0-1_レイヤ___1
  6
CONTINUOUS
 62
     7
 10
-249.14345
 20
118.63696
 30
0.0
 11
-239.6211999999999
 21
121.7272099999999
 31
0.0
  0
LINE
  5
5A0
  8
_0-1_レイヤ___1
  6
CONTINUOUS
 62
     7
 10
-239.6211999999999
 20
121.7272099999999
 30
0.0
 11
-238.6893
 21
118.89087000000001
 31
0.0
  0
LINE
  5
5A1
  8
_0-1_レイヤ___1
  6
CONTINUOUS
 62
     7
 10
-183.61498
 20
140.05753000000001
 30
0.0
 11
-193.09657000000001
 21
136.9672799999999
 31
0.0
  0
LINE
  5
5A2
  8
_0-1_レイヤ___1
  6
CONTINUOUS
 62
     7
 10
-193.09657000000001
 20
136.9672799999999
 30
0.0
 11
-192.16467
 21
134.08822000000001
 31
0.0
  0
LINE
  5
5A3
  8
_0-1_レイヤ___1
  6
CONTINUOUS
 62
     7
 10
-183.61498
 20
140.05753000000001
 30
0.0
 11
-182.68272999999991
 21
137.22119000000001
 31
0.0
  0
LINE
  5
5A4
  8
_0-1_レイヤ___1
  6
CONTINUOUS
 62
     7
 10
-192.16467
 20
134.08822000000001
 30
0.0
 11
-238.6893
 21
118.89087000000001
 31
0.0
  0
LINE
  5
5A5
  8
_0-1_レイヤ___1
  6
CONTINUOUS
 62
     7
 10
-199.95092
 20
86.825799999999987
 30
0.0
 11
-199.95092
 21
71.924379999999999
 31
0.0
  0
LINE
  5
5A6
  8
_0-1_レイヤ___1
  6
CONTINUOUS
 62
     7
 10
-199.95092
 20
71.924379999999999
 30
0.0
 11
-199.95092
 21
85.894589999999965
 31
0.0
  0
LINE
  5
5A7
  8
_0-1_レイヤ___1
  6
CONTINUOUS
 62
     7
 10
-275.05020999999988
 20
47.032196999999996
 30
0.0
 11
-275.05020999999988
 21
61.934302000000002
 31
0.0
  0
LINE
  5
5A8
  8
_0-1_レイヤ___1
  6
CONTINUOUS
 62
     7
 10
-199.95092
 20
47.032196999999996
 30
0.0
 11
-204.94320999999991
 21
47.032196999999996
 31
0.0
  0
LINE
  5
5A9
  8
_0-1_レイヤ___1
  6
CONTINUOUS
 62
     7
 10
-275.00956000000002
 20
110.87119
 30
0.0
 11
-270.26877000000002
 21
109.3474199999999
 31
0.0
  0
LINE
  5
5AA
  8
_0-1_レイヤ___1
  6
CONTINUOUS
 62
     7
 10
-275.05020999999988
 20
47.032196999999996
 30
0.0
 11
-275.05020999999988
 21
61.934302000000002
 31
0.0
  0
LINE
  5
5AB
  8
_0-1_レイヤ___1
  6
CONTINUOUS
 62
     7
 10
-199.95092
 20
47.032196999999996
 30
0.0
 11
-204.94320999999991
 21
47.032196999999996
 31
0.0
  0
LINE
  5
5AC
  8
_0-1_レイヤ___1
  6
CONTINUOUS
 62
     7
 10
-260.73894000000001
 20
106.29886
 30
0.0
 11
-259.80669999999992
 21
109.1782699999999
 31
0.0
  0
LINE
  5
5AD
  8
_0-1_レイヤ___1
  6
CONTINUOUS
 62
     7
 10
-259.80669999999992
 20
109.1782699999999
 30
0.0
 11
-269.33686999999992
 21
112.22615
 31
0.0
  0
LINE
  5
5AE
  8
_0-1_レイヤ___1
  6
CONTINUOUS
 62
     7
 10
-269.33686999999992
 20
112.22615
 30
0.0
 11
-270.26877000000002
 21
109.3474199999999
 31
0.0
  0
LINE
  5
5AF
  8
_0-1_レイヤ___1
  6
CONTINUOUS
 62
     7
 10
-260.73894000000001
 20
106.29886
 30
0.0
 11
-214.25426999999991
 21
91.398129999999995
 31
0.0
  0
LINE
  5
5B0
  8
_0-1_レイヤ___1
  6
CONTINUOUS
 62
     7
 10
-214.25426999999991
 20
91.398129999999995
 30
0.0
 11
-213.3306399999999
 21
94.276510000000002
 31
0.0
  0
LINE
  5
5B1
  8
_0-1_レイヤ___1
  6
CONTINUOUS
 62
     7
 10
-213.3306399999999
 20
94.276510000000002
 30
0.0
 11
-203.80046999999999
 21
91.228290000000015
 31
0.0
  0
LINE
  5
5B2
  8
_0-1_レイヤ___1
  6
CONTINUOUS
 62
     7
 10
-203.80046999999999
 20
91.228290000000015
 30
0.0
 11
-204.7320299999999
 21
88.350260000000006
 31
0.0
  0
LINE
  5
5B3
  8
_0-1_レイヤ___1
  6
CONTINUOUS
 62
     7
 10
-204.7320299999999
 20
88.350260000000006
 30
0.0
 11
-199.95092
 21
86.825799999999987
 31
0.0
  0
LINE
  5
5B4
  8
_0-1_レイヤ___1
  6
CONTINUOUS
 62
     7
 10
-196.98504
 20
61.934302000000002
 30
0.0
 11
-196.98504
 21
71.924379999999999
 31
0.0
  0
LINE
  5
5B5
  8
_0-1_レイヤ___1
  6
CONTINUOUS
 62
     7
 10
-196.98504
 20
71.924379999999999
 30
0.0
 11
-199.95092
 21
71.924379999999999
 31
0.0
  0
LINE
  5
5B6
  8
_0-1_レイヤ___1
  6
CONTINUOUS
 62
     7
 10
-196.98504
 20
61.934302000000002
 30
0.0
 11
-199.95092
 21
61.934302000000002
 31
0.0
  0
LINE
  5
5B7
  8
_0-1_レイヤ___1
  6
CONTINUOUS
 62
     7
 10
-199.95092
 20
61.934302000000002
 30
0.0
 11
-199.95092
 21
47.032196999999996
 31
0.0
  0
LINE
  5
5B8
  8
_0-1_レイヤ___1
  6
CONTINUOUS
 62
     7
 10
-199.95092
 20
47.032196999999996
 30
0.0
 11
-199.95092
 21
61.934302000000002
 31
0.0
  0
LINE
  5
5B9
  8
_0-1_レイヤ___1
  6
CONTINUOUS
 62
     7
 10
-214.97567000000001
 20
47.032196999999996
 30
0.0
 11
-214.97567000000001
 21
44.026694999999997
 31
0.0
  0
LINE
  5
5BA
  8
_0-1_レイヤ___1
  6
CONTINUOUS
 62
     7
 10
-214.97567000000001
 20
44.026694999999997
 30
0.0
 11
-204.94320999999991
 21
44.026694999999997
 31
0.0
  0
LINE
  5
5BB
  8
_0-1_レイヤ___1
  6
CONTINUOUS
 62
     7
 10
-204.94320999999991
 20
44.026694999999997
 30
0.0
 11
-204.94320999999991
 21
47.032196999999996
 31
0.0
  0
LINE
  5
5BC
  8
_0-1_レイヤ___1
  6
CONTINUOUS
 62
     7
 10
-270.05000000000001
 20
47.032196999999996
 30
0.0
 11
-270.05000000000001
 21
44.026694999999997
 31
0.0
  0
LINE
  5
5BD
  8
_0-1_レイヤ___1
  6
CONTINUOUS
 62
     7
 10
-270.05000000000001
 20
44.026694999999997
 30
0.0
 11
-260.0172
 21
44.026694999999997
 31
0.0
  0
LINE
  5
5BE
  8
_0-1_レイヤ___1
  6
CONTINUOUS
 62
     7
 10
-260.0172
 20
44.026694999999997
 30
0.0
 11
-260.0172
 21
47.032196999999996
 31
0.0
  0
LINE
  5
5BF
  8
_0-1_レイヤ___1
  6
CONTINUOUS
 62
     7
 10
-260.0172
 20
47.032196999999996
 30
0.0
 11
-214.97567000000001
 21
47.032196999999996
 31
0.0
  0
LINE
  5
5C0
  8
_0-1_レイヤ___1
  6
CONTINUOUS
 62
     7
 10
-270.05000000000001
 20
47.032196999999996
 30
0.0
 11
-275.05020999999988
 21
47.032196999999996
 31
0.0
  0
LINE
  5
5C1
  8
_0-1_レイヤ___1
  6
CONTINUOUS
 62
     7
 10
-214.97567000000001
 20
47.032196999999996
 30
0.0
 11
-260.0172
 21
47.032196999999996
 31
0.0
  0
LINE
  5
5C2
  8
_0-1_レイヤ___1
  6
CONTINUOUS
 62
     7
 10
-275.00956000000002
 20
74.041049999999998
 30
0.0
 11
-278.01609999999999
 21
74.041049999999998
 31
0.0
  0
LINE
  5
5C3
  8
_0-1_レイヤ___1
  6
CONTINUOUS
 62
     7
 10
-275.00956000000002
 20
84.031829999999999
 30
0.0
 11
-278.01609999999999
 21
84.031829999999999
 31
0.0
  0
LINE
  5
5C4
  8
_0-1_レイヤ___1
  6
CONTINUOUS
 62
     7
 10
-278.01609999999999
 20
84.031829999999999
 30
0.0
 11
-278.01609999999999
 21
74.041049999999998
 31
0.0
  0
LINE
  5
5C5
  8
_0-1_レイヤ___1
  6
CONTINUOUS
 62
     7
 10
-275.00956000000002
 20
84.031829999999999
 30
0.0
 11
-275.00956000000002
 21
110.87119
 31
0.0
  0
LINE
  5
5C6
  8
_0-1_レイヤ___1
  6
CONTINUOUS
 62
     7
 10
-275.05020999999988
 20
47.032196999999996
 30
0.0
 11
-275.05020999999988
 21
74.041049999999998
 31
0.0
  0
LINE
  5
5C7
  8
_0-1_レイヤ___1
  6
CONTINUOUS
 62
     7
 10
-275.00956000000002
 20
84.031829999999999
 30
0.0
 11
-275.00956000000002
 21
110.87119
 31
0.0
  0
LINE
  5
5C8
  8
_0-0_0
  6
DASHED1
 62
     7
 10
392.64393999999987
 20
336.38815
 30
0.0
 11
392.64393999999987
 21
340.20929999999993
 31
0.0
  0
CIRCLE
  5
5C9
  8
_0-0_0
  6
CENTER1
 62
     7
 10
175.14501000000001
 20
109.84156
 30
0.0
 40
10.0
  0
LINE
  5
5CA
  8
_0-1_レイヤ___1
  6
CONTINUOUS
 62
     7
 10
342.65829999999988
 20
122.8695899999999
 30
0.0
 11
352.64908000000003
 21
122.8695899999999
 31
0.0
  0
LINE
  5
5CB
  8
_0-1_レイヤ___1
  6
CONTINUOUS
 62
     7
 10
352.64908000000003
 20
119.86409
 30
0.0
 11
342.65829999999988
 21
119.86409
 31
0.0
  0
LINE
  5
5CC
  8
_0-1_レイヤ___1
  6
CONTINUOUS
 62
     7
 10
342.65829999999988
 20
119.86409
 30
0.0
 11
342.65829999999988
 21
122.8695899999999
 31
0.0
  0
LINE
  5
5CD
  8
_0-1_レイヤ___1
  6
CONTINUOUS
 62
     7
 10
352.64908000000003
 20
122.8695899999999
 30
0.0
 11
352.64908000000003
 21
119.86409
 31
0.0
  0
LINE
  5
5CE
  8
_0-0_0
  6
CONTINUOUS
 62
     7
 10
175.6019
 20
-151.74397999999999
 30
0.0
 11
149.25547
 21
-197.37733
 31
0.0
  0
LINE
  5
5CF
  8
_0-0_0
  6
CONTINUOUS
 62
     7
 10
174.71344999999999
 20
-151.78784999999991
 30
0.0
 11
201.48749000000001
 21
-198.1618499999999
 31
0.0
  0
LINE
  5
5D0
  8
_0-1_レイヤ___1
  6
CONTINUOUS
 62
     7
 10
175.14501000000001
 20
-188.26575
 30
0.0
 11
175.14501000000001
 21
-195.13855000000001
 31
0.0
  0
LINE
  5
5D1
  8
_0-1_レイヤ___1
  6
CONTINUOUS
 62
     7
 10
175.14501000000001
 20
-195.13855000000001
 30
0.0
 11
45.139169000000003
 21
-195.13855000000001
 31
0.0
  0
LINE
  5
5D2
  8
_0-1_レイヤ___1
  6
CONTINUOUS
 62
     7
 10
45.139169000000003
 20
-195.13855000000001
 30
0.0
 11
45.139169000000003
 21
-155.13341
 31
0.0
  0
LINE
  5
5D3
  8
_0-1_レイヤ___1
  6
CONTINUOUS
 62
     7
 10
45.139169000000003
 20
-155.13341
 30
0.0
 11
175.14501000000001
 21
-155.13341
 31
0.0
  0
LINE
  5
5D4
  8
_0-1_レイヤ___1
  6
CONTINUOUS
 62
     7
 10
175.14501000000001
 20
-155.13341
 30
0.0
 11
175.14501000000001
 21
-162.86667999999989
 31
0.0
  0
LINE
  5
5D5
  8
_0-1_レイヤ___1
  6
CONTINUOUS
 62
     7
 10
305.62472999999989
 20
-283.83652000000001
 30
0.0
 11
175.66091999999989
 21
-283.83652000000001
 31
0.0
  0
LINE
  5
5D6
  8
_0-1_レイヤ___1
  6
CONTINUOUS
 62
     7
 10
175.66091999999989
 20
-283.83652000000001
 30
0.0
 11
175.66091999999989
 21
-243.83137999999991
 31
0.0
  0
LINE
  5
5D7
  8
_0-1_レイヤ___1
  6
CONTINUOUS
 62
     7
 10
175.66091999999989
 20
-243.83137999999991
 30
0.0
 11
305.62472999999989
 21
-243.83137999999991
 31
0.0
  0
LINE
  5
5D8
  8
_0-1_レイヤ___1
  6
CONTINUOUS
 62
     7
 10
305.62472999999989
 20
-243.83137999999991
 30
0.0
 11
305.62472999999989
 21
-283.83652000000001
 31
0.0
  0
LINE
  5
5D9
  8
_0-1_レイヤ___1
  6
CONTINUOUS
 62
     7
 10
305.62472999999989
 20
-283.83652000000001
 30
0.0
 11
175.66091999999989
 21
-283.83652000000001
 31
0.0
  0
LINE
  5
5DA
  8
_0-1_レイヤ___1
  6
CONTINUOUS
 62
     7
 10
175.66091999999989
 20
-283.83652000000001
 30
0.0
 11
175.66091999999989
 21
-243.83137999999991
 31
0.0
  0
LINE
  5
5DB
  8
_0-1_レイヤ___1
  6
CONTINUOUS
 62
     7
 10
175.66091999999989
 20
-243.83137999999991
 30
0.0
 11
305.62472999999989
 21
-243.83137999999991
 31
0.0
  0
LINE
  5
5DC
  8
_0-1_レイヤ___1
  6
CONTINUOUS
 62
     7
 10
305.62472999999989
 20
-243.83137999999991
 30
0.0
 11
305.62472999999989
 21
-283.83652000000001
 31
0.0
  0
LINE
  5
5DD
  8
_0-1_レイヤ___1
  6
CONTINUOUS
 62
     7
 10
335.13094000000001
 20
-283.83652000000001
 30
0.0
 11
305.62472999999989
 21
-283.83652000000001
 31
0.0
  0
LINE
  5
5DE
  8
_0-1_レイヤ___1
  6
CONTINUOUS
 62
     7
 10
16.148522
 20
-283.83652000000001
 30
0.0
 11
16.148522
 21
-270.84023999999999
 31
0.0
  0
LINE
  5
5DF
  8
_0-1_レイヤ___1
  6
CONTINUOUS
 62
     7
 10
16.148522
 20
-217.8395099999999
 30
0.0
 11
335.13094000000001
 21
-217.8395099999999
 31
0.0
  0
LINE
  5
5E0
  8
_0-1_レイヤ___1
  6
CONTINUOUS
 62
     7
 10
335.13094000000001
 20
-217.8395099999999
 30
0.0
 11
335.13094000000001
 21
-230.83510000000001
 31
0.0
  0
LINE
  5
5E1
  8
_0-1_レイヤ___1
  6
CONTINUOUS
 62
     7
 10
335.13094000000001
 20
-283.83652000000001
 30
0.0
 11
305.62472999999989
 21
-283.83652000000001
 31
0.0
  0
LINE
  5
5E2
  8
_0-1_レイヤ___1
  6
CONTINUOUS
 62
     7
 10
16.148522
 20
-283.83652000000001
 30
0.0
 11
16.148522
 21
-270.84023999999999
 31
0.0
  0
LINE
  5
5E3
  8
_0-1_レイヤ___1
  6
CONTINUOUS
 62
     7
 10
16.148522
 20
-217.8395099999999
 30
0.0
 11
335.13094000000001
 21
-217.8395099999999
 31
0.0
  0
LINE
  5
5E4
  8
_0-1_レイヤ___1
  6
CONTINUOUS
 62
     7
 10
335.13094000000001
 20
-217.8395099999999
 30
0.0
 11
335.13094000000001
 21
-230.83510000000001
 31
0.0
  0
LINE
  5
5E5
  8
_0-1_レイヤ___1
  6
CONTINUOUS
 62
     7
 10
175.66091999999989
 20
-243.83137999999991
 30
0.0
 11
305.62472999999989
 21
-243.83137999999991
 31
0.0
  0
LINE
  5
5E6
  8
_0-1_レイヤ___1
  6
CONTINUOUS
 62
     7
 10
305.62472999999989
 20
-243.83137999999991
 30
0.0
 11
305.62472999999989
 21
-283.83652000000001
 31
0.0
  0
LINE
  5
5E7
  8
_0-1_レイヤ___1
  6
CONTINUOUS
 62
     7
 10
175.66091999999989
 20
-243.83137999999991
 30
0.0
 11
305.62472999999989
 21
-243.83137999999991
 31
0.0
  0
LINE
  5
5E8
  8
_0-1_レイヤ___1
  6
CONTINUOUS
 62
     7
 10
305.62472999999989
 20
-243.83137999999991
 30
0.0
 11
305.62472999999989
 21
-283.83652000000001
 31
0.0
  0
LINE
  5
5E9
  8
_0-1_レイヤ___1
  6
CONTINUOUS
 62
     7
 10
175.66091999999989
 20
-243.83137999999991
 30
0.0
 11
45.655076000000001
 21
-243.83137999999991
 31
0.0
  0
LINE
  5
5EA
  8
_0-1_レイヤ___1
  6
CONTINUOUS
 62
     7
 10
45.655076000000001
 20
-243.83137999999991
 30
0.0
 11
45.655076000000001
 21
-283.83652000000001
 31
0.0
  0
LINE
  5
5EB
  8
_0-1_レイヤ___1
  6
CONTINUOUS
 62
     7
 10
175.66091999999989
 20
-243.83137999999991
 30
0.0
 11
45.655076000000001
 21
-243.83137999999991
 31
0.0
  0
LINE
  5
5EC
  8
_0-1_レイヤ___1
  6
CONTINUOUS
 62
     7
 10
45.655076000000001
 20
-243.83137999999991
 30
0.0
 11
45.655076000000001
 21
-283.83652000000001
 31
0.0
  0
LINE
  5
5ED
  8
_0-1_レイヤ___1
  6
CONTINUOUS
 62
     7
 10
45.655076000000001
 20
-283.83652000000001
 30
0.0
 11
16.148522
 21
-283.83652000000001
 31
0.0
  0
LINE
  5
5EE
  8
_0-1_レイヤ___1
  6
CONTINUOUS
 62
     7
 10
16.148522
 20
-283.83652000000001
 30
0.0
 11
45.655076000000001
 21
-283.83652000000001
 31
0.0
  0
LINE
  5
5EF
  8
_0-1_レイヤ___1
  6
CONTINUOUS
 62
     7
 10
175.66091999999989
 20
-283.83652000000001
 30
0.0
 11
45.655076000000001
 21
-283.83652000000001
 31
0.0
  0
LINE
  5
5F0
  8
_0-1_レイヤ___1
  6
CONTINUOUS
 62
     7
 10
45.655076000000001
 20
-283.83652000000001
 30
0.0
 11
45.655076000000001
 21
-243.83137999999991
 31
0.0
  0
LINE
  5
5F1
  8
_0-1_レイヤ___1
  6
CONTINUOUS
 62
     7
 10
45.655076000000001
 20
-243.83137999999991
 30
0.0
 11
175.66091999999989
 21
-243.83137999999991
 31
0.0
  0
LINE
  5
5F2
  8
_0-1_レイヤ___1
  6
CONTINUOUS
 62
     7
 10
175.66091999999989
 20
-243.83137999999991
 30
0.0
 11
175.66091999999989
 21
-283.83652000000001
 31
0.0
  0
LINE
  5
5F3
  8
_0-1_レイヤ___1
  6
CONTINUOUS
 62
     7
 10
175.66091999999989
 20
-283.83652000000001
 30
0.0
 11
45.655076000000001
 21
-283.83652000000001
 31
0.0
  0
LINE
  5
5F4
  8
_0-1_レイヤ___1
  6
CONTINUOUS
 62
     7
 10
45.655076000000001
 20
-283.83652000000001
 30
0.0
 11
45.655076000000001
 21
-243.83137999999991
 31
0.0
  0
LINE
  5
5F5
  8
_0-1_レイヤ___1
  6
CONTINUOUS
 62
     7
 10
45.655076000000001
 20
-243.83137999999991
 30
0.0
 11
175.66091999999989
 21
-243.83137999999991
 31
0.0
  0
LINE
  5
5F6
  8
_0-1_レイヤ___1
  6
CONTINUOUS
 62
     7
 10
175.66091999999989
 20
-243.83137999999991
 30
0.0
 11
175.66091999999989
 21
-283.83652000000001
 31
0.0
  0
LINE
  5
5F7
  8
_0-1_レイヤ___1
  6
CONTINUOUS
 62
     7
 10
16.148522
 20
-230.83510000000001
 30
0.0
 11
13.143020999999999
 21
-230.83510000000001
 31
0.0
  0
LINE
  5
5F8
  8
_0-1_レイヤ___1
  6
CONTINUOUS
 62
     7
 10
13.143020999999999
 20
-230.83510000000001
 30
0.0
 11
13.143020999999999
 21
-270.84023999999999
 31
0.0
  0
LINE
  5
5F9
  8
_0-1_レイヤ___1
  6
CONTINUOUS
 62
     7
 10
13.143020999999999
 20
-270.84023999999999
 30
0.0
 11
16.148522
 21
-270.84023999999999
 31
0.0
  0
LINE
  5
5FA
  8
_0-1_レイヤ___1
  6
CONTINUOUS
 62
     7
 10
16.148522
 20
-230.83510000000001
 30
0.0
 11
16.148522
 21
-217.8395099999999
 31
0.0
  0
LINE
  5
5FB
  8
_0-1_レイヤ___1
  6
CONTINUOUS
 62
     7
 10
338.13679000000002
 20
-230.83510000000001
 30
0.0
 11
338.13679000000002
 21
-270.84023999999999
 31
0.0
  0
LINE
  5
5FC
  8
_0-1_レイヤ___1
  6
CONTINUOUS
 62
     7
 10
338.13679000000002
 20
-270.84023999999999
 30
0.0
 11
335.13094000000001
 21
-270.84023999999999
 31
0.0
  0
LINE
  5
5FD
  8
_0-1_レイヤ___1
  6
CONTINUOUS
 62
     7
 10
335.13094000000001
 20
-230.83510000000001
 30
0.0
 11
338.13679000000002
 21
-230.83510000000001
 31
0.0
  0
LINE
  5
5FE
  8
_0-1_レイヤ___1
  6
CONTINUOUS
 62
     7
 10
335.13094000000001
 20
-270.84023999999999
 30
0.0
 11
335.13094000000001
 21
-283.83652000000001
 31
0.0
  0
LINE
  5
5FF
  8
_0-0_0
  6
CONTINUOUS
 62
     7
 10
174.16092
 20
-232.8395099999999
 30
0.0
 11
174.16092
 21
-222.8395099999999
 31
0.0
  0
LINE
  5
600
  8
_0-0_0
  6
CONTINUOUS
 62
     7
 10
177.16092
 20
-232.8395099999999
 30
0.0
 11
177.16092
 21
-222.8395099999999
 31
0.0
  0
LINE
  5
601
  8
_0-0_0
  6
CONTINUOUS
 62
     7
 10
174.16092
 20
-232.8395099999999
 30
0.0
 11
177.16092
 21
-232.8395099999999
 31
0.0
  0
LINE
  5
602
  8
_0-0_0
  6
CONTINUOUS
 62
     7
 10
174.16092
 20
-222.8395099999999
 30
0.0
 11
177.16092
 21
-222.8395099999999
 31
0.0
  0
LINE
  5
603
  8
_0-0_0
  6
CONTINUOUS
 62
     7
 10
132.14501000000001
 20
129.84155999999999
 30
0.0
 11
132.14501000000001
 21
139.8415599999999
 31
0.0
  0
LINE
  5
604
  8
_0-0_0
  6
CONTINUOUS
 62
     7
 10
132.14501000000001
 20
69.841560000000001
 30
0.0
 11
132.14501000000001
 21
79.841560000000001
 31
0.0
  0
LINE
  5
605
  8
_0-0_0
  6
CONTINUOUS
 62
     7
 10
132.14501000000001
 20
9.8415660000000003
 30
0.0
 11
132.14501000000001
 21
19.841566
 31
0.0
  0
LINE
  5
606
  8
_0-0_0
  6
CONTINUOUS
 62
     7
 10
135.14501000000001
 20
129.84155999999999
 30
0.0
 11
135.14501000000001
 21
139.8415599999999
 31
0.0
  0
LINE
  5
607
  8
_0-0_0
  6
CONTINUOUS
 62
     7
 10
135.14501000000001
 20
69.841560000000001
 30
0.0
 11
135.14501000000001
 21
79.841560000000001
 31
0.0
  0
LINE
  5
608
  8
_0-0_0
  6
CONTINUOUS
 62
     7
 10
135.14501000000001
 20
9.8415660000000003
 30
0.0
 11
135.14501000000001
 21
19.841566
 31
0.0
  0
LINE
  5
609
  8
_0-0_0
  6
CONTINUOUS
 62
     7
 10
215.14501000000001
 20
129.84155999999999
 30
0.0
 11
215.14501000000001
 21
139.8415599999999
 31
0.0
  0
LINE
  5
60A
  8
_0-0_0
  6
CONTINUOUS
 62
     7
 10
215.14501000000001
 20
69.841560000000001
 30
0.0
 11
215.14501000000001
 21
79.841560000000001
 31
0.0
  0
LINE
  5
60B
  8
_0-0_0
  6
CONTINUOUS
 62
     7
 10
215.14501000000001
 20
9.8415660000000003
 30
0.0
 11
215.14501000000001
 21
19.841566
 31
0.0
  0
LINE
  5
60C
  8
_0-0_0
  6
CONTINUOUS
 62
     7
 10
218.14501000000001
 20
69.841560000000001
 30
0.0
 11
218.14501000000001
 21
79.841560000000001
 31
0.0
  0
LINE
  5
60D
  8
_0-0_0
  6
CONTINUOUS
 62
     7
 10
218.14501000000001
 20
129.84155999999999
 30
0.0
 11
218.14501000000001
 21
139.8415599999999
 31
0.0
  0
LINE
  5
60E
  8
_0-0_0
  6
CONTINUOUS
 62
     7
 10
132.14501000000001
 20
139.8415599999999
 30
0.0
 11
135.14501000000001
 21
139.8415599999999
 31
0.0
  0
LINE
  5
60F
  8
_0-0_0
  6
CONTINUOUS
 62
     7
 10
215.14501000000001
 20
139.8415599999999
 30
0.0
 11
218.14501000000001
 21
139.8415599999999
 31
0.0
  0
LINE
  5
610
  8
_0-0_0
  6
CONTINUOUS
 62
     7
 10
132.14501000000001
 20
79.841560000000001
 30
0.0
 11
135.14501000000001
 21
79.841560000000001
 31
0.0
  0
LINE
  5
611
  8
_0-0_0
  6
CONTINUOUS
 62
     7
 10
215.14501000000001
 20
79.841560000000001
 30
0.0
 11
218.14501000000001
 21
79.841560000000001
 31
0.0
  0
LINE
  5
612
  8
_0-0_0
  6
CONTINUOUS
 62
     7
 10
132.14501000000001
 20
69.841560000000001
 30
0.0
 11
135.14501000000001
 21
69.841560000000001
 31
0.0
  0
LINE
  5
613
  8
_0-0_0
  6
CONTINUOUS
 62
     7
 10
215.14501000000001
 20
69.841560000000001
 30
0.0
 11
218.14501000000001
 21
69.841560000000001
 31
0.0
  0
LINE
  5
614
  8
_0-0_0
  6
CONTINUOUS
 62
     7
 10
132.14501000000001
 20
19.841566
 30
0.0
 11
135.14501000000001
 21
19.841566
 31
0.0
  0
LINE
  5
615
  8
_0-0_0
  6
CONTINUOUS
 62
     7
 10
132.14501000000001
 20
9.8415660000000003
 30
0.0
 11
135.14501000000001
 21
9.8415660000000003
 31
0.0
  0
LINE
  5
616
  8
_0-0_0
  6
CONTINUOUS
 62
     7
 10
132.14501000000001
 20
129.84155999999999
 30
0.0
 11
135.14501000000001
 21
129.84155999999999
 31
0.0
  0
LINE
  5
617
  8
_0-0_0
  6
CONTINUOUS
 62
     7
 10
215.14501000000001
 20
129.84155999999999
 30
0.0
 11
218.14501000000001
 21
129.84155999999999
 31
0.0
  0
LINE
  5
618
  8
_0-0_0
  6
CONTINUOUS
 62
     7
 10
215.14501000000001
 20
19.841566
 30
0.0
 11
218.14501000000001
 21
19.841566
 31
0.0
  0
LINE
  5
619
  8
_0-0_0
  6
CONTINUOUS
 62
     7
 10
218.14501000000001
 20
9.8415660000000003
 30
0.0
 11
218.14501000000001
 21
19.841566
 31
0.0
  0
LINE
  5
61A
  8
_0-0_0
  6
CONTINUOUS
 62
     7
 10
215.14501000000001
 20
9.8415660000000003
 30
0.0
 11
218.14501000000001
 21
9.8415660000000003
 31
0.0
  0
LINE
  5
61B
  8
_0-0_0
  6
CONTINUOUS
 62
     7
 10
-166.8805899999999
 20
-273.14963999999992
 30
0.0
 11
-167.1951
 21
-276.75920000000002
 31
0.0
  0
LINE
  5
61C
  8
_0-0_0
  6
CONTINUOUS
 62
     7
 10
-165.59375
 20
-263.79264999999992
 30
0.0
 11
-166.8805899999999
 21
-273.14963999999992
 31
0.0
  0
LINE
  5
61D
  8
_0-0_0
  6
CONTINUOUS
 62
     7
 10
-164.59428
 20
-258.40600000000001
 30
0.0
 11
-165.59375
 21
-263.79264999999992
 31
0.0
  0
LINE
  5
61E
  8
_0-0_0
  6
CONTINUOUS
 62
     7
 10
-164.0517999999999
 20
-255.8762999999999
 30
0.0
 11
-164.59428
 21
-258.40600000000001
 31
0.0
  0
LINE
  5
61F
  8
_0-0_0
  6
CONTINUOUS
 62
     7
 10
-163.0150899999999
 20
-251.53208000000001
 30
0.0
 11
-164.0517999999999
 21
-255.8762999999999
 31
0.0
  0
LINE
  5
620
  8
_0-0_0
  6
CONTINUOUS
 62
     7
 10
-161.86302000000001
 20
-247.2094699999999
 30
0.0
 11
-163.0150899999999
 21
-251.53208000000001
 31
0.0
  0
LINE
  5
621
  8
_0-0_0
  6
CONTINUOUS
 62
     7
 10
-161.4800799999999
 20
-245.8942099999999
 30
0.0
 11
-161.86302000000001
 21
-247.2094699999999
 31
0.0
  0
LINE
  5
622
  8
_0-0_0
  6
CONTINUOUS
 62
     7
 10
-137.1951039999999
 20
-195.8942099999999
 30
0.0
 11
-137.72213799999989
 21
-196.49308999999991
 31
0.0
  0
LINE
  5
623
  8
_0-0_0
  6
CONTINUOUS
 62
     7
 10
-137.72213799999989
 20
-196.49308999999991
 30
0.0
 11
-138.62852699999999
 21
-197.52744000000001
 31
0.0
  0
LINE
  5
624
  8
_0-0_0
  6
CONTINUOUS
 62
     7
 10
-138.62852699999999
 20
-197.52744000000001
 30
0.0
 11
-139.5285529999999
 21
-198.56681
 31
0.0
  0
LINE
  5
625
  8
_0-0_0
  6
CONTINUOUS
 62
     7
 10
-139.5285529999999
 20
-198.56681
 30
0.0
 11
-140.4181899999999
 21
-199.61437000000001
 31
0.0
  0
LINE
  5
626
  8
_0-0_0
  6
CONTINUOUS
 62
     7
 10
-140.4181899999999
 20
-199.61437000000001
 30
0.0
 11
-141.2934119999999
 21
-200.67329000000001
 31
0.0
  0
LINE
  5
627
  8
_0-0_0
  6
CONTINUOUS
 62
     7
 10
-141.2934119999999
 20
-200.67329000000001
 30
0.0
 11
-142.15019000000001
 21
-201.74674999999991
 31
0.0
  0
LINE
  5
628
  8
_0-0_0
  6
CONTINUOUS
 62
     7
 10
-142.15019000000001
 20
-201.74674999999991
 30
0.0
 11
-142.63708299999999
 21
-202.37727000000001
 31
0.0
  0
LINE
  5
629
  8
_0-0_0
  6
CONTINUOUS
 62
     7
 10
-142.63708299999999
 20
-202.37727000000001
 30
0.0
 11
-143.41134
 21
-203.4163299999999
 31
0.0
  0
LINE
  5
62A
  8
_0-0_0
  6
CONTINUOUS
 62
     7
 10
-143.41134
 20
-203.4163299999999
 30
0.0
 11
-144.69587000000001
 21
-205.24590000000001
 31
0.0
  0
LINE
  5
62B
  8
_0-0_0
  6
CONTINUOUS
 62
     7
 10
-144.69587000000001
 20
-205.24590000000001
 30
0.0
 11
-145.91879
 21
-207.11946
 31
0.0
  0
LINE
  5
62C
  8
_0-0_0
  6
CONTINUOUS
 62
     7
 10
-145.91879
 20
-207.11946
 30
0.0
 11
-147.0825899999999
 21
-209.03214
 31
0.0
  0
LINE
  5
62D
  8
_0-0_0
  6
CONTINUOUS
 62
     7
 10
-147.0825899999999
 20
-209.03214
 30
0.0
 11
-148.18979999999991
 21
-210.97904
 31
0.0
  0
LINE
  5
62E
  8
_0-0_0
  6
CONTINUOUS
 62
     7
 10
-148.18979999999991
 20
-210.97904
 30
0.0
 11
-149.24292999999989
 21
-212.9552799999999
 31
0.0
  0
LINE
  5
62F
  8
_0-0_0
  6
CONTINUOUS
 62
     7
 10
-149.24292999999989
 20
-212.9552799999999
 30
0.0
 11
-149.82995999999989
 21
-214.11302000000001
 31
0.0
  0
LINE
  5
630
  8
_0-0_0
  6
CONTINUOUS
 62
     7
 10
-149.82995999999989
 20
-214.11302000000001
 30
0.0
 11
-150.62058999999991
 21
-215.73942
 31
0.0
  0
LINE
  5
631
  8
_0-0_0
  6
CONTINUOUS
 62
     7
 10
-150.62058999999991
 20
-215.73942
 30
0.0
 11
-151.9137099999999
 21
-218.57379
 31
0.0
  0
LINE
  5
632
  8
_0-0_0
  6
CONTINUOUS
 62
     7
 10
-151.9137099999999
 20
-218.57379
 30
0.0
 11
-153.12865999999991
 21
-221.44189
 31
0.0
  0
LINE
  5
633
  8
_0-0_0
  6
CONTINUOUS
 62
     7
 10
-153.12865999999991
 20
-221.44189
 30
0.0
 11
-154.27760000000001
 21
-224.33843999999999
 31
0.0
  0
LINE
  5
634
  8
_0-0_0
  6
CONTINUOUS
 62
     7
 10
-154.27760000000001
 20
-224.33843999999999
 30
0.0
 11
-155.3727099999999
 21
-227.2581999999999
 31
0.0
  0
LINE
  5
635
  8
_0-0_0
  6
CONTINUOUS
 62
     7
 10
-155.3727099999999
 20
-227.2581999999999
 30
0.0
 11
-156.42614
 21
-230.19591
 31
0.0
  0
LINE
  5
636
  8
_0-0_0
  6
CONTINUOUS
 62
     7
 10
-156.42614
 20
-230.19591
 30
0.0
 11
-157.02283
 21
-231.90592000000001
 31
0.0
  0
LINE
  5
637
  8
_0-0_0
  6
CONTINUOUS
 62
     7
 10
-157.02283
 20
-231.90592000000001
 30
0.0
 11
-157.8654599999999
 21
-234.36752999999999
 31
0.0
  0
LINE
  5
638
  8
_0-0_0
  6
CONTINUOUS
 62
     7
 10
-157.8654599999999
 20
-234.36752999999999
 30
0.0
 11
-158.50808000000001
 21
-236.31231
 31
0.0
  0
LINE
  5
639
  8
_0-0_0
  6
CONTINUOUS
 62
     7
 10
-166.46943999999999
 20
-271.42325
 30
0.0
 11
-166.74039999999999
 21
-273.20226999999988
 31
0.0
  0
LINE
  5
63A
  8
_0-0_0
  6
CONTINUOUS
 62
     7
 10
-166.74039999999999
 20
-273.20226999999988
 30
0.0
 11
-167.19453999999999
 21
-276.27023000000003
 31
0.0
  0
LINE
  5
63B
  8
_0-0_0
  6
CONTINUOUS
 62
     7
 10
-167.19453999999999
 20
-276.27023000000003
 30
0.0
 11
-167.6125099999999
 21
-279.34008999999998
 31
0.0
  0
LINE
  5
63C
  8
_0-0_0
  6
CONTINUOUS
 62
     7
 10
-167.6125099999999
 20
-279.34008999999998
 30
0.0
 11
-167.97141999999991
 21
-282.41305999999992
 31
0.0
  0
LINE
  5
63D
  8
_0-0_0
  6
CONTINUOUS
 62
     7
 10
-167.97141999999991
 20
-282.41305999999992
 30
0.0
 11
-168.24835999999991
 21
-285.49031999999988
 31
0.0
  0
LINE
  5
63E
  8
_0-0_0
  6
CONTINUOUS
 62
     7
 10
-168.24835999999991
 20
-285.49031999999988
 30
0.0
 11
-168.42045999999991
 21
-288.57308999999998
 31
0.0
  0
LINE
  5
63F
  8
_0-0_0
  6
CONTINUOUS
 62
     7
 10
-168.42045999999991
 20
-288.57308999999998
 30
0.0
 11
-168.46321999999989
 21
-290.36408999999992
 31
0.0
  0
LINE
  5
640
  8
_0-0_0
  6
CONTINUOUS
 62
     7
 10
-168.46321999999989
 20
-290.36408999999992
 30
0.0
 11
-168.46522999999999
 21
-290.57517000000001
 31
0.0
  0
LINE
  5
641
  8
_0-0_0
  6
CONTINUOUS
 62
     7
 10
-168.46522999999999
 20
-290.57517000000001
 30
0.0
 11
-168.46733
 21
-290.93919
 31
0.0
  0
LINE
  5
642
  8
_0-0_0
  6
CONTINUOUS
 62
     7
 10
-168.46733
 20
-290.93919
 30
0.0
 11
-168.46798000000001
 21
-291.30327
 31
0.0
  0
LINE
  5
643
  8
_0-0_0
  6
CONTINUOUS
 62
     7
 10
-168.46798000000001
 20
-291.30327
 30
0.0
 11
-168.46749
 21
-291.66741999999999
 31
0.0
  0
LINE
  5
644
  8
_0-0_0
  6
CONTINUOUS
 62
     7
 10
-168.46749
 20
-291.66741999999999
 30
0.0
 11
-168.46618000000001
 21
-292.03160999999989
 31
0.0
  0
LINE
  5
645
  8
_0-0_0
  6
CONTINUOUS
 62
     7
 10
-168.46618000000001
 20
-292.03160999999989
 30
0.0
 11
-168.46437
 21
-292.39582999999988
 31
0.0
  0
LINE
  5
646
  8
_0-0_0
  6
CONTINUOUS
 62
     7
 10
-168.46437
 20
-292.39582999999988
 30
0.0
 11
-168.46321999999989
 21
-292.60708
 31
0.0
  0
LINE
  5
647
  8
_0-0_0
  6
CONTINUOUS
 62
     7
 10
-158.50808000000001
 20
-236.31231
 30
0.0
 11
-161.4800799999999
 21
-245.8942099999999
 31
0.0
  0
LINE
  5
648
  8
_0-0_0
  6
CONTINUOUS
 62
     7
 10
-128.712444
 20
-292.60708
 30
0.0
 11
-128.712444
 21
-171.23616000000001
 31
0.0
  0
LINE
  5
649
  8
_0-0_0
  6
CONTINUOUS
 62
     7
 10
-90.544296000000003
 20
-273.14963999999992
 30
0.0
 11
-90.229783999999995
 21
-276.75920000000002
 31
0.0
  0
LINE
  5
64A
  8
_0-0_0
  6
CONTINUOUS
 62
     7
 10
-91.831131000000013
 20
-263.79264999999992
 30
0.0
 11
-90.544296000000003
 21
-273.14963999999992
 31
0.0
  0
LINE
  5
64B
  8
_0-0_0
  6
CONTINUOUS
 62
     7
 10
-92.830599000000007
 20
-258.40600000000001
 30
0.0
 11
-91.831131000000013
 21
-263.79264999999992
 31
0.0
  0
LINE
  5
64C
  8
_0-0_0
  6
CONTINUOUS
 62
     7
 10
-93.373085000000003
 20
-255.8762999999999
 30
0.0
 11
-92.830599000000007
 21
-258.40600000000001
 31
0.0
  0
LINE
  5
64D
  8
_0-0_0
  6
CONTINUOUS
 62
     7
 10
-94.409791999999996
 20
-251.53208000000001
 30
0.0
 11
-93.373085000000003
 21
-255.8762999999999
 31
0.0
  0
LINE
  5
64E
  8
_0-0_0
  6
CONTINUOUS
 62
     7
 10
-95.561863999999986
 20
-247.2094699999999
 30
0.0
 11
-94.409791999999996
 21
-251.53208000000001
 31
0.0
  0
LINE
  5
64F
  8
_0-0_0
  6
CONTINUOUS
 62
     7
 10
-95.944805000000017
 20
-245.8942099999999
 30
0.0
 11
-95.561863999999986
 21
-247.2094699999999
 31
0.0
  0
LINE
  5
650
  8
_0-0_0
  6
CONTINUOUS
 62
     7
 10
-120.229784
 20
-195.8942099999999
 30
0.0
 11
-119.7027499999999
 21
-196.49308999999991
 31
0.0
  0
LINE
  5
651
  8
_0-0_0
  6
CONTINUOUS
 62
     7
 10
-119.7027499999999
 20
-196.49308999999991
 30
0.0
 11
-118.796361
 21
-197.52744000000001
 31
0.0
  0
LINE
  5
652
  8
_0-0_0
  6
CONTINUOUS
 62
     7
 10
-118.796361
 20
-197.52744000000001
 30
0.0
 11
-117.896334
 21
-198.56681
 31
0.0
  0
LINE
  5
653
  8
_0-0_0
  6
CONTINUOUS
 62
     7
 10
-117.896334
 20
-198.56681
 30
0.0
 11
-117.006697
 21
-199.61437000000001
 31
0.0
  0
LINE
  5
654
  8
_0-0_0
  6
CONTINUOUS
 62
     7
 10
-117.006697
 20
-199.61437000000001
 30
0.0
 11
-116.13147600000001
 21
-200.67329000000001
 31
0.0
  0
LINE
  5
655
  8
_0-0_0
  6
CONTINUOUS
 62
     7
 10
-116.13147600000001
 20
-200.67329000000001
 30
0.0
 11
-115.274698
 21
-201.74674999999991
 31
0.0
  0
LINE
  5
656
  8
_0-0_0
  6
CONTINUOUS
 62
     7
 10
-115.274698
 20
-201.74674999999991
 30
0.0
 11
-114.78780399999989
 21
-202.37727000000001
 31
0.0
  0
LINE
  5
657
  8
_0-0_0
  6
CONTINUOUS
 62
     7
 10
-114.78780399999989
 20
-202.37727000000001
 30
0.0
 11
-114.01354600000001
 21
-203.4163299999999
 31
0.0
  0
LINE
  5
658
  8
_0-0_0
  6
CONTINUOUS
 62
     7
 10
-114.01354600000001
 20
-203.4163299999999
 30
0.0
 11
-112.729009
 21
-205.24590000000001
 31
0.0
  0
LINE
  5
659
  8
_0-0_0
  6
CONTINUOUS
 62
     7
 10
-112.729009
 20
-205.24590000000001
 30
0.0
 11
-111.506097
 21
-207.11946
 31
0.0
  0
LINE
  5
65A
  8
_0-0_0
  6
CONTINUOUS
 62
     7
 10
-111.506097
 20
-207.11946
 30
0.0
 11
-110.3422939999999
 21
-209.03214
 31
0.0
  0
LINE
  5
65B
  8
_0-0_0
  6
CONTINUOUS
 62
     7
 10
-110.3422939999999
 20
-209.03214
 30
0.0
 11
-109.235084
 21
-210.97904
 31
0.0
  0
LINE
  5
65C
  8
_0-0_0
  6
CONTINUOUS
 62
     7
 10
-109.235084
 20
-210.97904
 30
0.0
 11
-108.181954
 21
-212.9552799999999
 31
0.0
  0
LINE
  5
65D
  8
_0-0_0
  6
CONTINUOUS
 62
     7
 10
-108.181954
 20
-212.9552799999999
 30
0.0
 11
-107.5949269999999
 21
-214.11302000000001
 31
0.0
  0
LINE
  5
65E
  8
_0-0_0
  6
CONTINUOUS
 62
     7
 10
-107.5949269999999
 20
-214.11302000000001
 30
0.0
 11
-106.80429700000001
 21
-215.73942
 31
0.0
  0
LINE
  5
65F
  8
_0-0_0
  6
CONTINUOUS
 62
     7
 10
-106.80429700000001
 20
-215.73942
 30
0.0
 11
-105.51117000000001
 21
-218.57379
 31
0.0
  0
LINE
  5
660
  8
_0-0_0
  6
CONTINUOUS
 62
     7
 10
-105.51117000000001
 20
-218.57379
 30
0.0
 11
-104.296221
 21
-221.44189
 31
0.0
  0
LINE
  5
661
  8
_0-0_0
  6
CONTINUOUS
 62
     7
 10
-104.296221
 20
-221.44189
 30
0.0
 11
-103.1472799999999
 21
-224.33843999999999
 31
0.0
  0
LINE
  5
662
  8
_0-0_0
  6
CONTINUOUS
 62
     7
 10
-103.1472799999999
 20
-224.33843999999999
 30
0.0
 11
-102.0521779999999
 21
-227.2581999999999
 31
0.0
  0
LINE
  5
663
  8
_0-0_0
  6
CONTINUOUS
 62
     7
 10
-102.0521779999999
 20
-227.2581999999999
 30
0.0
 11
-100.9987439999999
 21
-230.19591
 31
0.0
  0
LINE
  5
664
  8
_0-0_0
  6
CONTINUOUS
 62
     7
 10
-100.9987439999999
 20
-230.19591
 30
0.0
 11
-100.40204900000001
 21
-231.90592000000001
 31
0.0
  0
LINE
  5
665
  8
_0-0_0
  6
CONTINUOUS
 62
     7
 10
-100.40204900000001
 20
-231.90592000000001
 30
0.0
 11
-99.559425000000005
 21
-234.36752999999999
 31
0.0
  0
LINE
  5
666
  8
_0-0_0
  6
CONTINUOUS
 62
     7
 10
-99.559425000000005
 20
-234.36752999999999
 30
0.0
 11
-98.916808000000003
 21
-236.31231
 31
0.0
  0
LINE
  5
667
  8
_0-0_0
  6
CONTINUOUS
 62
     7
 10
-90.955437999999987
 20
-271.42325
 30
0.0
 11
-90.684483999999983
 21
-273.20226999999988
 31
0.0
  0
LINE
  5
668
  8
_0-0_0
  6
CONTINUOUS
 62
     7
 10
-90.684483999999983
 20
-273.20226999999988
 30
0.0
 11
-90.230344000000002
 21
-276.27023000000003
 31
0.0
  0
LINE
  5
669
  8
_0-0_0
  6
CONTINUOUS
 62
     7
 10
-90.230344000000002
 20
-276.27023000000003
 30
0.0
 11
-89.812374000000005
 21
-279.34008999999998
 31
0.0
  0
LINE
  5
66A
  8
_0-0_0
  6
CONTINUOUS
 62
     7
 10
-89.812374000000005
 20
-279.34008999999998
 30
0.0
 11
-89.453467999999987
 21
-282.41305999999992
 31
0.0
  0
LINE
  5
66B
  8
_0-0_0
  6
CONTINUOUS
 62
     7
 10
-89.453467999999987
 20
-282.41305999999992
 30
0.0
 11
-89.176518999999985
 21
-285.49031999999988
 31
0.0
  0
LINE
  5
66C
  8
_0-0_0
  6
CONTINUOUS
 62
     7
 10
-89.176518999999985
 20
-285.49031999999988
 30
0.0
 11
-89.004420000000025
 21
-288.57308999999998
 31
0.0
  0
LINE
  5
66D
  8
_0-0_0
  6
CONTINUOUS
 62
     7
 10
-89.004420000000025
 20
-288.57308999999998
 30
0.0
 11
-88.961665000000025
 21
-290.36408999999992
 31
0.0
  0
LINE
  5
66E
  8
_0-0_0
  6
CONTINUOUS
 62
     7
 10
-88.961665000000025
 20
-290.36408999999992
 30
0.0
 11
-88.959654999999998
 21
-290.57517000000001
 31
0.0
  0
LINE
  5
66F
  8
_0-0_0
  6
CONTINUOUS
 62
     7
 10
-88.959654999999998
 20
-290.57517000000001
 30
0.0
 11
-88.957552999999976
 21
-290.93919
 31
0.0
  0
LINE
  5
670
  8
_0-0_0
  6
CONTINUOUS
 62
     7
 10
-88.957552999999976
 20
-290.93919
 30
0.0
 11
-88.956905000000006
 21
-291.30327
 31
0.0
  0
LINE
  5
671
  8
_0-0_0
  6
CONTINUOUS
 62
     7
 10
-88.956905000000006
 20
-291.30327
 30
0.0
 11
-88.957392999999982
 21
-291.66741999999999
 31
0.0
  0
LINE
  5
672
  8
_0-0_0
  6
CONTINUOUS
 62
     7
 10
-88.957392999999982
 20
-291.66741999999999
 30
0.0
 11
-88.958700999999976
 21
-292.03160999999989
 31
0.0
  0
LINE
  5
673
  8
_0-0_0
  6
CONTINUOUS
 62
     7
 10
-88.958700999999976
 20
-292.03160999999989
 30
0.0
 11
-88.960510999999997
 21
-292.39582999999988
 31
0.0
  0
LINE
  5
674
  8
_0-0_0
  6
CONTINUOUS
 62
     7
 10
-88.960510999999997
 20
-292.39582999999988
 30
0.0
 11
-88.961665000000025
 21
-292.60708
 31
0.0
  0
LINE
  5
675
  8
_0-0_0
  6
CONTINUOUS
 62
     7
 10
-98.916808000000003
 20
-236.31231
 30
0.0
 11
-95.944805000000017
 21
-245.8942099999999
 31
0.0
  0
LINE
  5
676
  8
_0-0_0
  6
CONTINUOUS
 62
     7
 10
-128.712444
 20
-292.60708
 30
0.0
 11
-128.712444
 21
-171.23616000000001
 31
0.0
  0
LINE
  5
677
  8
_0-0_0
  6
CONTINUOUS
 62
     7
 10
-120.229784
 20
-195.8942099999999
 30
0.0
 11
-121.066284
 21
-195.09517
 31
0.0
  0
LINE
  5
678
  8
_0-0_0
  6
CONTINUOUS
 62
     7
 10
-121.066284
 20
-195.09517
 30
0.0
 11
-122.51179
 21
-193.7215799999999
 31
0.0
  0
LINE
  5
679
  8
_0-0_0
  6
CONTINUOUS
 62
     7
 10
-122.51179
 20
-193.7215799999999
 30
0.0
 11
-123.966362
 21
-192.35932
 31
0.0
  0
LINE
  5
67A
  8
_0-0_0
  6
CONTINUOUS
 62
     7
 10
-123.966362
 20
-192.35932
 30
0.0
 11
-125.4357399999999
 21
-191.01558
 31
0.0
  0
LINE
  5
67B
  8
_0-0_0
  6
CONTINUOUS
 62
     7
 10
-125.4357399999999
 20
-191.01558
 30
0.0
 11
-126.92566100000001
 21
-189.69751999999991
 31
0.0
  0
LINE
  5
67C
  8
_0-0_0
  6
CONTINUOUS
 62
     7
 10
-126.92566100000001
 20
-189.69751999999991
 30
0.0
 11
-128.44186500000001
 21
-188.41231999999991
 31
0.0
  0
LINE
  5
67D
  8
_0-0_0
  6
CONTINUOUS
 62
     7
 10
-128.44186500000001
 20
-188.41231999999991
 30
0.0
 11
-128.712444
 21
-188.19204999999991
 31
0.0
  0
LINE
  5
67E
  8
_0-0_0
  6
CONTINUOUS
 62
     7
 10
-137.1951039999999
 20
-195.8942099999999
 30
0.0
 11
-136.35860400000001
 21
-195.09517
 31
0.0
  0
LINE
  5
67F
  8
_0-0_0
  6
CONTINUOUS
 62
     7
 10
-136.35860400000001
 20
-195.09517
 30
0.0
 11
-134.91309799999991
 21
-193.7215799999999
 31
0.0
  0
LINE
  5
680
  8
_0-0_0
  6
CONTINUOUS
 62
     7
 10
-134.91309799999991
 20
-193.7215799999999
 30
0.0
 11
-133.45852600000001
 21
-192.35932
 31
0.0
  0
LINE
  5
681
  8
_0-0_0
  6
CONTINUOUS
 62
     7
 10
-133.45852600000001
 20
-192.35932
 30
0.0
 11
-131.989148
 21
-191.01558
 31
0.0
  0
LINE
  5
682
  8
_0-0_0
  6
CONTINUOUS
 62
     7
 10
-131.989148
 20
-191.01558
 30
0.0
 11
-130.49922699999999
 21
-189.69751999999991
 31
0.0
  0
LINE
  5
683
  8
_0-0_0
  6
CONTINUOUS
 62
     7
 10
-130.49922699999999
 20
-189.69751999999991
 30
0.0
 11
-128.98302299999989
 21
-188.41231999999991
 31
0.0
  0
LINE
  5
684
  8
_0-0_0
  6
CONTINUOUS
 62
     7
 10
-128.98302299999989
 20
-188.41231999999991
 30
0.0
 11
-128.712444
 21
-188.19204999999991
 31
0.0
  0
LINE
  5
685
  8
_0-0_0
  6
CONTINUOUS
 62
     7
 10
449.25774000000001
 20
-227.67713000000001
 30
0.0
 11
389.25774000000001
 21
-227.67713000000001
 31
0.0
  0
LINE
  5
686
  8
_0-0_0
  6
CONTINUOUS
 62
     7
 10
389.25774000000001
 20
-227.67713000000001
 30
0.0
 11
389.25774000000001
 21
-277.21433000000002
 31
0.0
  0
LINE
  5
687
  8
_0-0_0
  6
CONTINUOUS
 62
     7
 10
449.25774000000001
 20
-277.21433000000002
 30
0.0
 11
389.25774000000001
 21
-277.21433000000002
 31
0.0
  0
LINE
  5
688
  8
_0-0_0
  6
CONTINUOUS
 62
     7
 10
573.25774000000001
 20
-227.67713000000001
 30
0.0
 11
573.25774000000001
 21
-277.21433000000002
 31
0.0
  0
LINE
  5
689
  8
_0-0_0
  6
CONTINUOUS
 62
     7
 10
543.25774000000001
 20
-302.38731999999999
 30
0.0
 11
573.25774000000001
 21
-277.21433000000002
 31
0.0
  0
LINE
  5
68A
  8
_0-0_0
  6
CONTINUOUS
 62
     7
 10
543.25774000000001
 20
-222.3873199999999
 30
0.0
 11
573.25774000000001
 21
-227.67713000000001
 31
0.0
  0
LINE
  5
68B
  8
_0-0_0
  6
CONTINUOUS
 62
     7
 10
479.2577399999999
 20
-222.3873199999999
 30
0.0
 11
543.25774000000001
 21
-222.3873199999999
 31
0.0
  0
LINE
  5
68C
  8
_0-0_0
  6
CONTINUOUS
 62
     7
 10
479.2577399999999
 20
-302.38731999999999
 30
0.0
 11
543.25774000000001
 21
-302.38731999999999
 31
0.0
  0
LINE
  5
68D
  8
_0-0_0
  6
CONTINUOUS
 62
     7
 10
479.2577399999999
 20
-222.3873199999999
 30
0.0
 11
449.25774000000001
 21
-227.67713000000001
 31
0.0
  0
LINE
  5
68E
  8
_0-0_0
  6
CONTINUOUS
 62
     7
 10
427.66791999999998
 20
-231.48400000000001
 30
0.0
 11
427.51965999999999
 21
-231.51014000000001
 31
0.0
  0
LINE
  5
68F
  8
_0-0_0
  6
CONTINUOUS
 62
     7
 10
479.2577399999999
 20
-302.38731999999999
 30
0.0
 11
449.25774000000001
 21
-277.21433000000002
 31
0.0
  0
LINE
  5
690
  8
_0-0_0
  6
CONTINUOUS
 62
     7
 10
449.25774000000001
 20
-227.67713000000001
 30
0.0
 11
449.25774000000001
 21
-277.21433000000002
 31
0.0
  0
LINE
  5
691
  8
_0-0_0
  6
CONTINUOUS
 62
     7
 10
479.2577399999999
 20
-222.3873199999999
 30
0.0
 11
479.2577399999999
 21
-302.38731999999999
 31
0.0
  0
LINE
  5
692
  8
_0-0_0
  6
CONTINUOUS
 62
     7
 10
543.25774000000001
 20
-222.3873199999999
 30
0.0
 11
543.25774000000001
 21
-302.38731999999999
 31
0.0
  0
LINE
  5
693
  8
_0-1_レイヤ___1
  6
CONTINUOUS
 62
     7
 10
189.49841000000001
 20
400.51652999999988
 30
0.0
 11
149.49326999999991
 21
400.51652999999988
 31
0.0
  0
LINE
  5
694
  8
_0-1_レイヤ___1
  6
CONTINUOUS
 62
     7
 10
149.49326999999991
 20
400.51652999999988
 30
0.0
 11
149.49326999999991
 21
397.51033000000001
 31
0.0
  0
LINE
  5
695
  8
_0-1_レイヤ___1
  6
CONTINUOUS
 62
     7
 10
189.49841000000001
 20
397.51033000000001
 30
0.0
 11
189.49841000000001
 21
400.51652999999988
 31
0.0
  0
LINE
  5
696
  8
_0-1_レイヤ___1
  6
CONTINUOUS
 62
     7
 10
219.51276999999999
 20
397.51033000000001
 30
0.0
 11
189.49841000000001
 21
397.51033000000001
 31
0.0
  0
LINE
  5
697
  8
_0-1_レイヤ___1
  6
CONTINUOUS
 62
     7
 10
119.52163
 20
397.51033000000001
 30
0.0
 11
219.51276999999999
 21
266.27492999999993
 31
0.0
  0
LINE
  5
698
  8
_0-1_レイヤ___1
  6
CONTINUOUS
 62
     7
 10
219.51276999999999
 20
266.27492999999993
 30
0.0
 11
285.51046000000002
 21
266.27492999999993
 31
0.0
  0
LINE
  5
699
  8
_0-1_レイヤ___1
  6
CONTINUOUS
 62
     7
 10
285.51046000000002
 20
266.27492999999993
 30
0.0
 11
219.51276999999999
 21
397.51033000000001
 31
0.0
  0
LINE
  5
69A
  8
_0-1_レイヤ___1
  6
CONTINUOUS
 62
     7
 10
149.49326999999991
 20
397.51033000000001
 30
0.0
 11
119.52163
 21
397.51033000000001
 31
0.0
  0
LINE
  5
69B
  8
_0-1_レイヤ___1
  6
CONTINUOUS
 62
     7
 10
226.49804
 20
279.27361999999988
 30
0.0
 11
226.49804
 21
276.26812000000001
 31
0.0
  0
LINE
  5
69C
  8
_0-1_レイヤ___1
  6
CONTINUOUS
 62
     7
 10
226.49804
 20
276.26812000000001
 30
0.0
 11
266.46046000000001
 21
276.26812000000001
 31
0.0
  0
LINE
  5
69D
  8
_0-1_レイヤ___1
  6
CONTINUOUS
 62
     7
 10
266.46046000000001
 20
276.26812000000001
 30
0.0
 11
266.46046000000001
 21
279.27361999999988
 31
0.0
  0
LINE
  5
69E
  8
_0-1_レイヤ___1
  6
CONTINUOUS
 62
     7
 10
266.46046000000001
 20
279.27361999999988
 30
0.0
 11
226.49804
 21
279.27361999999988
 31
0.0
  0
LINE
  5
69F
  8
_0-1_レイヤ___1
  6
CONTINUOUS
 62
     7
 10
183.9952099999999
 20
388.57168999999988
 30
0.0
 11
234.28671
 21
288.58537000000001
 31
0.0
  0
LINE
  5
6A0
  8
_0-1_レイヤ___1
  6
CONTINUOUS
 62
     7
 10
234.28671
 20
288.58537000000001
 30
0.0
 11
274.29253999999992
 21
288.58537000000001
 31
0.0
  0
LINE
  5
6A1
  8
_0-1_レイヤ___1
  6
CONTINUOUS
 62
     7
 10
223.99966000000001
 20
388.57168999999988
 30
0.0
 11
183.9952099999999
 21
388.57168999999988
 31
0.0
  0
LINE
  5
6A2
  8
_0-0_0
  6
CONTINUOUS
 62
     7
 10
539.14333999999985
 20
-36.878459100000001
 30
0.0
 11
539.14333999999985
 21
-188.30486999999991
 31
0.0
  0
LINE
  5
6A3
  8
_0-1_レイヤ___1
  6
CONTINUOUS
 62
     7
 10
118.88648000000001
 20
339.66307999999998
 30
0.0
 11
78.923370000000006
 21
339.66307999999998
 31
0.0
  0
LINE
  5
6A4
  8
_0-1_レイヤ___1
  6
CONTINUOUS
 62
     7
 10
78.923370000000006
 20
339.66307999999998
 30
0.0
 11
78.923370000000006
 21
336.65688999999992
 31
0.0
  0
LINE
  5
6A5
  8
_0-1_レイヤ___1
  6
CONTINUOUS
 62
     7
 10
118.88648000000001
 20
339.66307999999998
 30
0.0
 11
118.88648000000001
 21
336.65688999999992
 31
0.0
  0
LINE
  5
6A6
  8
_0-1_レイヤ___1
  6
CONTINUOUS
 62
     7
 10
118.88648000000001
 20
336.65688999999992
 30
0.0
 11
148.90015
 21
336.65688999999992
 31
0.0
  0
LINE
  5
6A7
  8
_0-1_レイヤ___1
  6
CONTINUOUS
 62
     7
 10
48.909017000000013
 20
336.65688999999992
 30
0.0
 11
148.90015
 21
205.4294099999999
 31
0.0
  0
LINE
  5
6A8
  8
_0-1_レイヤ___1
  6
CONTINUOUS
 62
     7
 10
148.90015
 20
205.4294099999999
 30
0.0
 11
214.89785000000001
 21
205.4294099999999
 31
0.0
  0
LINE
  5
6A9
  8
_0-1_レイヤ___1
  6
CONTINUOUS
 62
     7
 10
214.89785000000001
 20
205.4294099999999
 30
0.0
 11
148.90015
 21
336.65688999999992
 31
0.0
  0
LINE
  5
6AA
  8
_0-1_レイヤ___1
  6
CONTINUOUS
 62
     7
 10
78.923370000000006
 20
336.65688999999992
 30
0.0
 11
48.909017000000013
 21
336.65688999999992
 31
0.0
  0
LINE
  5
6AB
  8
_0-1_レイヤ___1
  6
CONTINUOUS
 62
     7
 10
155.88543000000001
 20
218.4201799999999
 30
0.0
 11
155.88543000000001
 21
215.41433000000001
 31
0.0
  0
LINE
  5
6AC
  8
_0-1_レイヤ___1
  6
CONTINUOUS
 62
     7
 10
155.88543000000001
 20
215.41433000000001
 30
0.0
 11
195.89057
 21
215.41433000000001
 31
0.0
  0
LINE
  5
6AD
  8
_0-1_レイヤ___1
  6
CONTINUOUS
 62
     7
 10
195.89057
 20
215.41433000000001
 30
0.0
 11
195.89057
 21
218.4201799999999
 31
0.0
  0
LINE
  5
6AE
  8
_0-1_レイヤ___1
  6
CONTINUOUS
 62
     7
 10
195.89057
 20
218.4201799999999
 30
0.0
 11
155.88543000000001
 21
218.4201799999999
 31
0.0
  0
LINE
  5
6AF
  8
_0-1_レイヤ___1
  6
CONTINUOUS
 62
     7
 10
153.38841999999991
 20
327.72615999999999
 30
0.0
 11
113.38329
 21
327.72615999999999
 31
0.0
  0
LINE
  5
6B0
  8
_0-1_レイヤ___1
  6
CONTINUOUS
 62
     7
 10
203.67993000000001
 20
227.7398499999999
 30
0.0
 11
163.67479
 21
227.7398499999999
 31
0.0
  0
LINE
  5
6B1
  8
_0-1_レイヤ___1
  6
CONTINUOUS
 62
     7
 10
163.67479
 20
227.7398499999999
 30
0.0
 11
113.38329
 21
327.72615999999999
 31
0.0
  0
LINE
  5
6B2
  8
_0-1_レイヤ___1
  6
CONTINUOUS
 62
     7
 10
642.24747999999988
 20
11.426448999999989
 30
0.0
 11
671.19785999999999
 21
19.183681
 31
0.0
  0
LINE
  5
6B3
  8
_0-0_0
  6
CONTINUOUS
 62
     7
 10
611.29854
 20
-6.150649999999998
 30
0.0
 11
618.81381999999996
 21
30.027730999999999
 31
0.0
  0
LINE
  5
6B4
  8
_0-1_レイヤ___1
  6
CONTINUOUS
 62
     7
 10
671.19785999999999
 20
19.183681
 30
0.0
 11
614.78225999999995
 21
-118.340481
 31
0.0
  0
LINE
  5
6B5
  8
_0-0_0
  6
CONTINUOUS
 62
     7
 10
600.29337999999996
 20
-122.22276599999989
 30
0.0
 11
601.06983000000002
 21
-125.1205439999999
 31
0.0
  0
LINE
  5
6B6
  8
_0-0_0
  6
CONTINUOUS
 62
     7
 10
601.06983000000002
 20
-125.1205439999999
 30
0.0
 11
610.72909000000004
 21
-122.532353
 31
0.0
  0
LINE
  5
6B7
  8
_0-0_0
  6
CONTINUOUS
 62
     7
 10
609.95263999999997
 20
-119.6345759999999
 30
0.0
 11
610.72909000000004
 21
-122.532353
 31
0.0
  0
LINE
  5
6B8
  8
_0-0_0
  6
CONTINUOUS
 62
     7
 10
609.95263999999997
 20
-119.6345759999999
 30
0.0
 11
614.78225999999995
 21
-118.340481
 31
0.0
  0
LINE
  5
6B9
  8
_0-0_0
  6
CONTINUOUS
 62
     7
 10
588.53515000000004
 20
-115.7331429999999
 30
0.0
 11
587.53857000000005
 21
-121.39331799999989
 31
0.0
  0
LINE
  5
6BA
  8
_0-1_レイヤ___1
  6
CONTINUOUS
 62
     7
 10
577.84436000000005
 20
-118.59773199999989
 30
0.0
 11
577.47482999999988
 21
-118.696746
 31
0.0
  0
LINE
  5
6BB
  8
_0-1_レイヤ___1
  6
CONTINUOUS
 62
     7
 10
611.23464999999999
 20
-6.1373779999999982
 30
0.0
 11
588.53515000000004
 21
-115.7331429999999
 31
0.0
  0
LINE
  5
6BC
  8
_0-0_0
  6
CONTINUOUS
 62
     7
 10
595.46375
 20
-123.51686100000001
 30
0.0
 11
600.29337999999996
 21
-122.22276599999989
 31
0.0
  0
LINE
  5
6BD
  8
_0-0_0
  6
CONTINUOUS
 62
     7
 10
595.46375
 20
-123.51686100000001
 30
0.0
 11
552.78821000000005
 21
-112.081987
 31
0.0
  0
LINE
  5
6BE
  8
_0-0_0
  6
CONTINUOUS
 62
     7
 10
552.78821000000005
 20
-112.081987
 30
0.0
 11
582.03485999999987
 21
29.456641000000001
 31
0.0
  0
LINE
  5
6BF
  8
_0-1_レイヤ___1
  6
CONTINUOUS
 62
     7
 10
552.79376000000002
 20
-112.083135
 30
0.0
 11
574.61383000000001
 21
-6.6959300000000042
 31
0.0
  0
LINE
  5
6C0
  8
_0-1_レイヤ___1
  6
CONTINUOUS
 62
     7
 10
669.34937000000002
 20
-10.827564999999989
 30
0.0
 11
668.71720000000016
 21
-11.927756
 31
0.0
  0
LINE
  5
6C1
  8
_0-1_レイヤ___1
  6
CONTINUOUS
 62
     7
 10
668.71720000000016
 20
-11.927756
 30
0.0
 11
668.08537000000001
 21
-13.029153000000001
 31
0.0
  0
LINE
  5
6C2
  8
_0-1_レイヤ___1
  6
CONTINUOUS
 62
     7
 10
668.08537000000001
 20
-13.029153000000001
 30
0.0
 11
667.48557000000005
 21
-14.129861
 31
0.0
  0
LINE
  5
6C3
  8
_0-1_レイヤ___1
  6
CONTINUOUS
 62
     7
 10
667.48557000000005
 20
-14.129861
 30
0.0
 11
666.89404999999988
 21
-15.230225000000001
 31
0.0
  0
LINE
  5
6C4
  8
_0-1_レイヤ___1
  6
CONTINUOUS
 62
     7
 10
623.20576000000005
 20
-275.83447000000001
 30
0.0
 11
630.83114
 21
-278.28978999999998
 31
0.0
  0
LINE
  5
6C5
  8
_0-1_レイヤ___1
  6
CONTINUOUS
 62
     7
 10
686.19726999999989
 20
-8.7105540000000037
 30
0.0
 11
669.34937000000002
 21
-10.827564999999989
 31
0.0
  0
LINE
  5
6C6
  8
_0-1_レイヤ___1
  6
CONTINUOUS
 62
     7
 10
623.29465000000005
 20
-260.80662000000001
 30
0.0
 11
626.30118000000004
 21
-260.84865000000002
 31
0.0
  0
LINE
  5
6C7
  8
_0-1_レイヤ___1
  6
CONTINUOUS
 62
     7
 10
626.30118000000004
 20
-260.84865000000002
 30
0.0
 11
626.21194999999989
 21
-270.83908000000002
 31
0.0
  0
LINE
  5
6C8
  8
_0-1_レイヤ___1
  6
CONTINUOUS
 62
     7
 10
626.21194999999989
 20
-270.83908000000002
 30
0.0
 11
623.25399000000004
 21
-270.83908000000002
 31
0.0
  0
LINE
  5
6C9
  8
_0-1_レイヤ___1
  6
CONTINUOUS
 62
     7
 10
623.25399000000004
 20
-270.83908000000002
 30
0.0
 11
623.20576000000005
 21
-273.29439999999988
 31
0.0
  0
LINE
  5
6CA
  8
_0-1_レイヤ___1
  6
CONTINUOUS
 62
     7
 10
623.20576000000005
 20
-273.29439999999988
 30
0.0
 11
623.20576000000005
 21
-275.83447000000001
 31
0.0
  0
LINE
  5
6CB
  8
_0-1_レイヤ___1
  6
CONTINUOUS
 62
     7
 10
626.76316999999995
 20
-203.19049999999999
 30
0.0
 11
629.72905000000003
 21
-203.52949000000001
 31
0.0
  0
LINE
  5
6CC
  8
_0-1_レイヤ___1
  6
CONTINUOUS
 62
     7
 10
629.72905000000003
 20
-203.52949000000001
 30
0.0
 11
628.70826999999997
 21
-213.47789
 31
0.0
  0
LINE
  5
6CD
  8
_0-1_レイヤ___1
  6
CONTINUOUS
 62
     7
 10
628.70826999999997
 20
-213.47789
 30
0.0
 11
625.70965999999987
 21
-213.13924
 31
0.0
  0
LINE
  5
6CE
  8
_0-1_レイヤ___1
  6
CONTINUOUS
 62
     7
 10
625.70965999999987
 20
-213.13924
 30
0.0
 11
625.45023999999989
 21
-216.10202000000001
 31
0.0
  0
LINE
  5
6CF
  8
_0-1_レイヤ___1
  6
CONTINUOUS
 62
     7
 10
625.45023999999989
 20
-216.10202000000001
 30
0.0
 11
625.15878999999995
 21
-219.10752999999991
 31
0.0
  0
LINE
  5
6D0
  8
_0-1_レイヤ___1
  6
CONTINUOUS
 62
     7
 10
625.15878999999995
 20
-219.10752999999991
 30
0.0
 11
624.89936999999986
 21
-222.07133999999999
 31
0.0
  0
LINE
  5
6D1
  8
_0-1_レイヤ___1
  6
CONTINUOUS
 62
     7
 10
624.89936999999986
 20
-222.07133999999999
 30
0.0
 11
624.64822000000004
 21
-225.03480999999999
 31
0.0
  0
LINE
  5
6D2
  8
_0-1_レイヤ___1
  6
CONTINUOUS
 62
     7
 10
624.64822000000004
 20
-225.03480999999999
 30
0.0
 11
624.43737999999985
 21
-227.99759
 31
0.0
  0
LINE
  5
6D3
  8
_0-1_レイヤ___1
  6
CONTINUOUS
 62
     7
 10
624.43737999999985
 20
-227.99759
 30
0.0
 11
624.22653999999989
 21
-231.00344000000001
 31
0.0
  0
LINE
  5
6D4
  8
_0-1_レイヤ___1
  6
CONTINUOUS
 62
     7
 10
624.22653999999989
 20
-231.00344000000001
 30
0.0
 11
624.13765999999987
 21
-232.4848299999999
 31
0.0
  0
LINE
  5
6D5
  8
_0-1_レイヤ___1
  6
CONTINUOUS
 62
     7
 10
624.13765999999987
 20
-232.4848299999999
 30
0.0
 11
624.05636000000004
 21
-234.00928999999999
 31
0.0
  0
LINE
  5
6D6
  8
_0-1_レイヤ___1
  6
CONTINUOUS
 62
     7
 10
624.05636000000004
 20
-234.00928999999999
 30
0.0
 11
623.96713
 21
-235.49067999999991
 31
0.0
  0
LINE
  5
6D7
  8
_0-1_レイヤ___1
  6
CONTINUOUS
 62
     7
 10
623.96713
 20
-235.49067999999991
 30
0.0
 11
623.88616999999999
 21
-236.97275999999999
 31
0.0
  0
LINE
  5
6D8
  8
_0-1_レイヤ___1
  6
CONTINUOUS
 62
     7
 10
623.88616999999999
 20
-236.97275999999999
 30
0.0
 11
623.75662999999997
 21
-239.89350999999999
 31
0.0
  0
LINE
  5
6D9
  8
_0-1_レイヤ___1
  6
CONTINUOUS
 62
     7
 10
623.75662999999997
 20
-239.89350999999999
 30
0.0
 11
623.71597999999994
 21
-241.3749
 31
0.0
  0
LINE
  5
6DA
  8
_0-1_レイヤ___1
  6
CONTINUOUS
 62
     7
 10
623.71597999999994
 20
-241.3749
 30
0.0
 11
623.63502000000017
 21
-242.89935
 31
0.0
  0
LINE
  5
6DB
  8
_0-1_レイヤ___1
  6
CONTINUOUS
 62
     7
 10
623.63502000000017
 20
-242.89935
 30
0.0
 11
623.54614000000004
 21
-245.90486000000001
 31
0.0
  0
LINE
  5
6DC
  8
_0-1_レイヤ___1
  6
CONTINUOUS
 62
     7
 10
623.54614000000004
 20
-245.90486000000001
 30
0.0
 11
623.50549000000001
 21
-248.8679799999999
 31
0.0
  0
LINE
  5
6DD
  8
_0-1_レイヤ___1
  6
CONTINUOUS
 62
     7
 10
623.50549000000001
 20
-248.8679799999999
 30
0.0
 11
623.41625999999985
 21
-251.83111
 31
0.0
  0
LINE
  5
6DE
  8
_0-1_レイヤ___1
  6
CONTINUOUS
 62
     7
 10
623.41625999999985
 20
-251.83111
 30
0.0
 11
623.37561000000005
 21
-254.8373
 31
0.0
  0
LINE
  5
6DF
  8
_0-1_レイヤ___1
  6
CONTINUOUS
 62
     7
 10
623.37561000000005
 20
-254.8373
 30
0.0
 11
623.33495000000005
 21
-257.80042999999989
 31
0.0
  0
LINE
  5
6E0
  8
_0-1_レイヤ___1
  6
CONTINUOUS
 62
     7
 10
623.33495000000005
 20
-257.80042999999989
 30
0.0
 11
623.29465000000005
 21
-260.80662000000001
 31
0.0
  0
LINE
  5
6E1
  8
_0-1_レイヤ___1
  6
CONTINUOUS
 62
     7
 10
635.57227999999986
 20
-136.17684
 30
0.0
 11
638.52989000000002
 21
-136.64295999999999
 31
0.0
  0
LINE
  5
6E2
  8
_0-1_レイヤ___1
  6
CONTINUOUS
 62
     7
 10
638.52989000000002
 20
-136.64295999999999
 30
0.0
 11
637.00680999999997
 21
-146.50627
 31
0.0
  0
LINE
  5
6E3
  8
_0-1_レイヤ___1
  6
CONTINUOUS
 62
     7
 10
637.00680999999997
 20
-146.50627
 30
0.0
 11
634.04850999999985
 21
-146.0401499999999
 31
0.0
  0
LINE
  5
6E4
  8
_0-1_レイヤ___1
  6
CONTINUOUS
 62
     7
 10
634.04850999999985
 20
-146.0401499999999
 30
0.0
 11
633.53828999999985
 21
-149.59618
 31
0.0
  0
LINE
  5
6E5
  8
_0-1_レイヤ___1
  6
CONTINUOUS
 62
     7
 10
633.53828999999985
 20
-149.59618
 30
0.0
 11
633.02773000000002
 21
-153.19526999999991
 31
0.0
  0
LINE
  5
6E6
  8
_0-1_レイヤ___1
  6
CONTINUOUS
 62
     7
 10
633.02773000000002
 20
-153.19526999999991
 30
0.0
 11
632.52508999999998
 21
-156.7509499999999
 31
0.0
  0
LINE
  5
6E7
  8
_0-1_レイヤ___1
  6
CONTINUOUS
 62
     7
 10
632.52508999999998
 20
-156.7509499999999
 30
0.0
 11
632.26567
 21
-158.52931000000001
 31
0.0
  0
LINE
  5
6E8
  8
_0-1_レイヤ___1
  6
CONTINUOUS
 62
     7
 10
632.26567
 20
-158.52931000000001
 30
0.0
 11
632.05517999999995
 21
-160.30698000000001
 31
0.0
  0
LINE
  5
6E9
  8
_0-1_レイヤ___1
  6
CONTINUOUS
 62
     7
 10
632.05517999999995
 20
-160.30698000000001
 30
0.0
 11
631.8040299999999
 21
-162.12737000000001
 31
0.0
  0
LINE
  5
6EA
  8
_0-1_レイヤ___1
  6
CONTINUOUS
 62
     7
 10
631.8040299999999
 20
-162.12737000000001
 30
0.0
 11
631.54462000000001
 21
-163.86301
 31
0.0
  0
LINE
  5
6EB
  8
_0-1_レイヤ___1
  6
CONTINUOUS
 62
     7
 10
631.54462000000001
 20
-163.86301
 30
0.0
 11
631.423
 21
-164.79421999999991
 31
0.0
  0
LINE
  5
6EC
  8
_0-1_レイヤ___1
  6
CONTINUOUS
 62
     7
 10
631.423
 20
-164.79421999999991
 30
0.0
 11
631.33378000000005
 21
-165.68305000000001
 31
0.0
  0
LINE
  5
6ED
  8
_0-1_レイヤ___1
  6
CONTINUOUS
 62
     7
 10
631.33378000000005
 20
-165.68305000000001
 30
0.0
 11
631.25282000000004
 21
-166.10610999999989
 31
0.0
  0
LINE
  5
6EE
  8
_0-1_レイヤ___1
  6
CONTINUOUS
 62
     7
 10
631.25282000000004
 20
-166.10610999999989
 30
0.0
 11
631.21216000000004
 21
-166.57222999999991
 31
0.0
  0
LINE
  5
6EF
  8
_0-1_レイヤ___1
  6
CONTINUOUS
 62
     7
 10
631.21216000000004
 20
-166.57222999999991
 30
0.0
 11
631.08227999999986
 21
-167.5030999999999
 31
0.0
  0
LINE
  5
6F0
  8
_0-1_レイヤ___1
  6
CONTINUOUS
 62
     7
 10
631.08227999999986
 20
-167.5030999999999
 30
0.0
 11
631.04232000000002
 21
-167.9265
 31
0.0
  0
LINE
  5
6F1
  8
_0-1_レイヤ___1
  6
CONTINUOUS
 62
     7
 10
631.04232000000002
 20
-167.9265
 30
0.0
 11
630.99339999999995
 21
-168.1807499999999
 31
0.0
  0
LINE
  5
6F2
  8
_0-1_レイヤ___1
  6
CONTINUOUS
 62
     7
 10
630.99339999999995
 20
-168.1807499999999
 30
0.0
 11
630.95308999999986
 21
-168.35024000000001
 31
0.0
  0
LINE
  5
6F3
  8
_0-1_レイヤ___1
  6
CONTINUOUS
 62
     7
 10
630.95308999999986
 20
-168.35024000000001
 30
0.0
 11
630.91243999999995
 21
-168.8156799999999
 31
0.0
  0
LINE
  5
6F4
  8
_0-1_レイヤ___1
  6
CONTINUOUS
 62
     7
 10
630.91243999999995
 20
-168.8156799999999
 30
0.0
 11
630.87179000000003
 21
-169.23908
 31
0.0
  0
LINE
  5
6F5
  8
_0-1_レイヤ___1
  6
CONTINUOUS
 62
     7
 10
630.87179000000003
 20
-169.23908
 30
0.0
 11
630.74225000000001
 21
-170.1706299999999
 31
0.0
  0
LINE
  5
6F6
  8
_0-1_レイヤ___1
  6
CONTINUOUS
 62
     7
 10
630.74225000000001
 20
-170.1706299999999
 30
0.0
 11
630.61271999999985
 21
-171.05912000000001
 31
0.0
  0
LINE
  5
6F7
  8
_0-1_レイヤ___1
  6
CONTINUOUS
 62
     7
 10
630.61271999999985
 20
-171.05912000000001
 30
0.0
 11
630.40188000000001
 21
-172.79510999999999
 31
0.0
  0
LINE
  5
6F8
  8
_0-1_レイヤ___1
  6
CONTINUOUS
 62
     7
 10
630.40188000000001
 20
-172.79510999999999
 30
0.0
 11
630.28026999999986
 21
-173.68429
 31
0.0
  0
LINE
  5
6F9
  8
_0-1_レイヤ___1
  6
CONTINUOUS
 62
     7
 10
630.28026999999986
 20
-173.68429
 30
0.0
 11
630.15072999999995
 21
-174.5731199999999
 31
0.0
  0
LINE
  5
6FA
  8
_0-1_レイヤ___1
  6
CONTINUOUS
 62
     7
 10
630.15072999999995
 20
-174.5731199999999
 30
0.0
 11
629.72905000000003
 21
-178.1715199999999
 31
0.0
  0
LINE
  5
6FB
  8
_0-1_レイヤ___1
  6
CONTINUOUS
 62
     7
 10
629.72905000000003
 20
-178.1715199999999
 30
0.0
 11
629.25914
 21
-181.76957999999991
 31
0.0
  0
LINE
  5
6FC
  8
_0-1_レイヤ___1
  6
CONTINUOUS
 62
     7
 10
629.25914
 20
-181.76957999999991
 30
0.0
 11
628.83780000000002
 21
-185.32561000000001
 31
0.0
  0
LINE
  5
6FD
  8
_0-1_レイヤ___1
  6
CONTINUOUS
 62
     7
 10
628.83780000000002
 20
-185.32561000000001
 30
0.0
 11
628.41646999999989
 21
-188.9236699999999
 31
0.0
  0
LINE
  5
6FE
  8
_0-1_レイヤ___1
  6
CONTINUOUS
 62
     7
 10
628.41646999999989
 20
-188.9236699999999
 30
0.0
 11
627.99478999999985
 21
-192.47969000000001
 31
0.0
  0
LINE
  5
6FF
  8
_0-1_レイヤ___1
  6
CONTINUOUS
 62
     7
 10
627.99478999999985
 20
-192.47969000000001
 30
0.0
 11
627.56552999999985
 21
-196.03571999999991
 31
0.0
  0
LINE
  5
700
  8
_0-1_レイヤ___1
  6
CONTINUOUS
 62
     7
 10
627.56552999999985
 20
-196.03571999999991
 30
0.0
 11
627.14418999999998
 21
-199.63446999999999
 31
0.0
  0
LINE
  5
701
  8
_0-1_レイヤ___1
  6
CONTINUOUS
 62
     7
 10
627.14418999999998
 20
-199.63446999999999
 30
0.0
 11
626.76316999999995
 21
-203.19049999999999
 31
0.0
  0
LINE
  5
702
  8
_0-1_レイヤ___1
  6
CONTINUOUS
 62
     7
 10
648.52238999999997
 20
-70.052028000000007
 30
0.0
 11
651.39939000000004
 21
-70.687303999999983
 31
0.0
  0
LINE
  5
703
  8
_0-1_レイヤ___1
  6
CONTINUOUS
 62
     7
 10
651.39939000000004
 20
-70.687303999999983
 30
0.0
 11
649.20280000000002
 21
-80.466207999999966
 31
0.0
  0
LINE
  5
704
  8
_0-1_レイヤ___1
  6
CONTINUOUS
 62
     7
 10
649.20280000000002
 20
-80.466207999999966
 30
0.0
 11
646.32614000000001
 21
-79.788901999999993
 31
0.0
  0
LINE
  5
705
  8
_0-1_レイヤ___1
  6
CONTINUOUS
 62
     7
 10
646.32614000000001
 20
-79.788901999999993
 30
0.0
 11
645.55615999999998
 21
-83.302554999999984
 31
0.0
  0
LINE
  5
706
  8
_0-1_レイヤ___1
  6
CONTINUOUS
 62
     7
 10
645.55615999999998
 20
-83.302554999999984
 30
0.0
 11
644.79444999999998
 21
-86.815518999999981
 31
0.0
  0
LINE
  5
707
  8
_0-1_レイヤ___1
  6
CONTINUOUS
 62
     7
 10
644.79444999999998
 20
-86.815518999999981
 30
0.0
 11
643.36026000000004
 21
-93.843513000000002
 31
0.0
  0
LINE
  5
708
  8
_0-1_レイヤ___1
  6
CONTINUOUS
 62
     7
 10
643.36026000000004
 20
-93.843513000000002
 30
0.0
 11
641.95811000000003
 21
-100.9131939999999
 31
0.0
  0
LINE
  5
709
  8
_0-1_レイヤ___1
  6
CONTINUOUS
 62
     7
 10
641.95811000000003
 20
-100.9131939999999
 30
0.0
 11
640.60452999999995
 21
-107.940155
 31
0.0
  0
LINE
  5
70A
  8
_0-1_レイヤ___1
  6
CONTINUOUS
 62
     7
 10
640.60452999999995
 20
-107.940155
 30
0.0
 11
639.29195000000004
 21
-114.967805
 31
0.0
  0
LINE
  5
70B
  8
_0-1_レイヤ___1
  6
CONTINUOUS
 62
     7
 10
639.29195000000004
 20
-114.967805
 30
0.0
 11
638.02760000000001
 21
-122.03679700000001
 31
0.0
  0
LINE
  5
70C
  8
_0-1_レイヤ___1
  6
CONTINUOUS
 62
     7
 10
638.02760000000001
 20
-122.03679700000001
 30
0.0
 11
636.79597000000001
 21
-129.10682199999991
 31
0.0
  0
LINE
  5
70D
  8
_0-1_レイヤ___1
  6
CONTINUOUS
 62
     7
 10
636.79597000000001
 20
-129.10682199999991
 30
0.0
 11
635.61257999999998
 21
-136.17684
 31
0.0
  0
LINE
  5
70E
  8
_0-1_レイヤ___1
  6
CONTINUOUS
 62
     7
 10
669.60879
 20
-16.500259
 30
0.0
 11
665.32962999999995
 21
-25.517624999999988
 31
0.0
  0
LINE
  5
70F
  8
_0-1_レイヤ___1
  6
CONTINUOUS
 62
     7
 10
665.32962999999995
 20
-25.517624999999988
 30
0.0
 11
662.62316999999985
 21
-24.247589999999992
 31
0.0
  0
LINE
  5
710
  8
_0-1_レイヤ___1
  6
CONTINUOUS
 62
     7
 10
666.89404999999988
 20
-15.230225000000001
 30
0.0
 11
669.60879
 21
-16.500259
 31
0.0
  0
LINE
  5
711
  8
_0-1_レイヤ___1
  6
CONTINUOUS
 62
     7
 10
662.62316999999985
 20
-24.247589999999992
 30
0.0
 11
662.0719499999999
 21
-25.64388700000001
 31
0.0
  0
LINE
  5
712
  8
_0-1_レイヤ___1
  6
CONTINUOUS
 62
     7
 10
662.0719499999999
 20
-25.64388700000001
 30
0.0
 11
661.48077000000001
 21
-27.040873999999999
 31
0.0
  0
LINE
  5
713
  8
_0-1_レイヤ___1
  6
CONTINUOUS
 62
     7
 10
661.48077000000001
 20
-27.040873999999999
 30
0.0
 11
660.37833999999998
 21
-29.835190000000001
 31
0.0
  0
LINE
  5
714
  8
_0-1_レイヤ___1
  6
CONTINUOUS
 62
     7
 10
660.37833999999998
 20
-29.835190000000001
 30
0.0
 11
659.31655999999987
 21
-32.629506900000003
 31
0.0
  0
LINE
  5
715
  8
_0-1_レイヤ___1
  6
CONTINUOUS
 62
     7
 10
659.31655999999987
 20
-32.629506900000003
 30
0.0
 11
658.30371000000002
 21
-35.465854899999997
 31
0.0
  0
LINE
  5
716
  8
_0-1_レイヤ___1
  6
CONTINUOUS
 62
     7
 10
658.30371000000002
 20
-35.465854899999997
 30
0.0
 11
657.33115999999995
 21
-38.3022019
 31
0.0
  0
LINE
  5
717
  8
_0-1_レイヤ___1
  6
CONTINUOUS
 62
     7
 10
657.33115999999995
 20
-38.3022019
 30
0.0
 11
656.39926000000003
 21
-41.138548
 31
0.0
  0
LINE
  5
718
  8
_0-1_レイヤ___1
  6
CONTINUOUS
 62
     7
 10
656.39926000000003
 20
-41.138548
 30
0.0
 11
655.50766999999985
 21
-43.974894999999989
 31
0.0
  0
LINE
  5
719
  8
_0-1_レイヤ___1
  6
CONTINUOUS
 62
     7
 10
655.50766999999985
 20
-43.974894999999989
 30
0.0
 11
654.61641999999995
 21
-46.853617
 31
0.0
  0
LINE
  5
71A
  8
_0-1_レイヤ___1
  6
CONTINUOUS
 62
     7
 10
654.61641999999995
 20
-46.853617
 30
0.0
 11
653.81406000000004
 21
-49.68979199999999
 31
0.0
  0
LINE
  5
71B
  8
_0-1_レイヤ___1
  6
CONTINUOUS
 62
     7
 10
653.81406000000004
 20
-49.68979199999999
 30
0.0
 11
652.97139000000004
 21
-52.56851300000001
 31
0.0
  0
LINE
  5
71C
  8
_0-1_レイヤ___1
  6
CONTINUOUS
 62
     7
 10
652.97139000000004
 20
-52.56851300000001
 30
0.0
 11
652.16075999999998
 21
-55.489264999999989
 31
0.0
  0
LINE
  5
71D
  8
_0-1_レイヤ___1
  6
CONTINUOUS
 62
     7
 10
652.16075999999998
 20
-55.489264999999989
 30
0.0
 11
651.39939000000004
 21
-58.36746999999999
 31
0.0
  0
LINE
  5
71E
  8
_0-1_レイヤ___1
  6
CONTINUOUS
 62
     7
 10
651.39939000000004
 20
-58.36746999999999
 30
0.0
 11
650.63732999999991
 21
-61.289256000000002
 31
0.0
  0
LINE
  5
71F
  8
_0-1_レイヤ___1
  6
CONTINUOUS
 62
     7
 10
650.63732999999991
 20
-61.289256000000002
 30
0.0
 11
649.92420000000004
 21
-64.209834999999998
 31
0.0
  0
LINE
  5
720
  8
_0-1_レイヤ___1
  6
CONTINUOUS
 62
     7
 10
649.92420000000004
 20
-64.209834999999998
 30
0.0
 11
649.20280000000002
 21
-67.131276000000014
 31
0.0
  0
LINE
  5
721
  8
_0-1_レイヤ___1
  6
CONTINUOUS
 62
     7
 10
649.20280000000002
 20
-67.131276000000014
 30
0.0
 11
648.52238999999997
 21
-70.052028000000007
 31
0.0
  0
LINE
  5
722
  8
_0-1_レイヤ___1
  6
CONTINUOUS
 62
     7
 10
701.90310999999986
 20
-186.63853
 30
0.0
 11
701.95168999999999
 21
-181.89705000000001
 31
0.0
  0
LINE
  5
723
  8
_0-1_レイヤ___1
  6
CONTINUOUS
 62
     7
 10
701.95168999999999
 20
-181.89705000000001
 30
0.0
 11
701.90310999999986
 21
-177.02878000000001
 31
0.0
  0
LINE
  5
724
  8
_0-1_レイヤ___1
  6
CONTINUOUS
 62
     7
 10
701.90310999999986
 20
-177.02878000000001
 30
0.0
 11
701.65161999999987
 21
-167.46107000000001
 31
0.0
  0
LINE
  5
725
  8
_0-1_レイヤ___1
  6
CONTINUOUS
 62
     7
 10
701.65161999999987
 20
-167.46107000000001
 30
0.0
 11
701.27058999999997
 21
-157.8516599999999
 31
0.0
  0
LINE
  5
726
  8
_0-1_レイヤ___1
  6
CONTINUOUS
 62
     7
 10
701.27058999999997
 20
-157.8516599999999
 30
0.0
 11
700.76036999999985
 21
-148.28394
 31
0.0
  0
LINE
  5
727
  8
_0-1_レイヤ___1
  6
CONTINUOUS
 62
     7
 10
700.76036999999985
 20
-148.28394
 30
0.0
 11
700.20915999999988
 21
-138.67419000000001
 31
0.0
  0
LINE
  5
728
  8
_0-1_レイヤ___1
  6
CONTINUOUS
 62
     7
 10
700.20915999999988
 20
-138.67419000000001
 30
0.0
 11
699.53668000000005
 21
-129.06479200000001
 31
0.0
  0
LINE
  5
729
  8
_0-1_レイヤ___1
  6
CONTINUOUS
 62
     7
 10
699.53668000000005
 20
-129.06479200000001
 30
0.0
 11
698.81561999999985
 21
-119.5394469999999
 31
0.0
  0
LINE
  5
72A
  8
_0-1_レイヤ___1
  6
CONTINUOUS
 62
     7
 10
698.81561999999985
 20
-119.5394469999999
 30
0.0
 11
697.97226000000001
 21
-109.97241699999999
 31
0.0
  0
LINE
  5
72B
  8
_0-1_レイヤ___1
  6
CONTINUOUS
 62
     7
 10
701.18962999999997
 20
-286.29101999999989
 30
0.0
 11
701.82181000000003
 21
-196.62897000000001
 31
0.0
  0
LINE
  5
72C
  8
_0-1_レイヤ___1
  6
CONTINUOUS
 62
     7
 10
701.10074999999995
 20
-301.27683999999999
 30
0.0
 11
701.14139999999998
 21
-296.28144999999989
 31
0.0
  0
LINE
  5
72D
  8
_0-1_レイヤ___1
  6
CONTINUOUS
 62
     7
 10
704.18823999999995
 20
-286.29101999999989
 30
0.0
 11
701.18962999999997
 21
-286.29101999999989
 31
0.0
  0
LINE
  5
72E
  8
_0-1_レイヤ___1
  6
CONTINUOUS
 62
     7
 10
701.14139999999998
 20
-296.28144999999989
 30
0.0
 11
704.10727999999995
 21
-296.32348000000002
 31
0.0
  0
LINE
  5
72F
  8
_0-1_レイヤ___1
  6
CONTINUOUS
 62
     7
 10
704.10727999999995
 20
-296.32348000000002
 30
0.0
 11
704.18823999999995
 21
-286.29101999999989
 31
0.0
  0
LINE
  5
730
  8
_0-1_レイヤ___1
  6
CONTINUOUS
 62
     7
 10
704.90930000000003
 20
-186.68056000000001
 30
0.0
 11
704.82869000000005
 21
-196.6713399999999
 31
0.0
  0
LINE
  5
731
  8
_0-1_レイヤ___1
  6
CONTINUOUS
 62
     7
 10
704.82869000000005
 20
-196.6713399999999
 30
0.0
 11
701.82181000000003
 21
-196.62897000000001
 31
0.0
  0
LINE
  5
732
  8
_0-1_レイヤ___1
  6
CONTINUOUS
 62
     7
 10
704.90930000000003
 20
-186.68056000000001
 30
0.0
 11
701.90310999999986
 21
-186.63853
 31
0.0
  0
LINE
  5
733
  8
_0-1_レイヤ___1
  6
CONTINUOUS
 62
     7
 10
697.08136000000002
 20
-100.0243589999999
 30
0.0
 11
695.08767999999986
 21
-80.847235000000026
 31
0.0
  0
LINE
  5
734
  8
_0-1_レイヤ___1
  6
CONTINUOUS
 62
     7
 10
695.08767999999986
 20
-80.847235000000026
 30
0.0
 11
692.89108999999985
 21
-61.754860000000008
 31
0.0
  0
LINE
  5
735
  8
_0-1_レイヤ___1
  6
CONTINUOUS
 62
     7
 10
692.89108999999985
 20
-61.754860000000008
 30
0.0
 11
690.51673000000017
 21
-42.704171000000002
 31
0.0
  0
LINE
  5
736
  8
_0-1_レイヤ___1
  6
CONTINUOUS
 62
     7
 10
690.51673000000017
 20
-42.704171000000002
 30
0.0
 11
688.06141000000002
 21
-23.612141999999999
 31
0.0
  0
LINE
  5
737
  8
_0-1_レイヤ___1
  6
CONTINUOUS
 62
     7
 10
700.04688999999985
 20
-99.727392000000023
 30
0.0
 11
700.97086999999999
 21
-109.67613900000001
 31
0.0
  0
LINE
  5
738
  8
_0-1_レイヤ___1
  6
CONTINUOUS
 62
     7
 10
700.97086999999999
 20
-109.67613900000001
 30
0.0
 11
697.97226000000001
 21
-109.97241699999999
 31
0.0
  0
LINE
  5
739
  8
_0-1_レイヤ___1
  6
CONTINUOUS
 62
     7
 10
697.08136000000002
 20
-100.0243589999999
 30
0.0
 11
700.04688999999985
 21
-99.727392000000023
 31
0.0
  0
LINE
  5
73A
  8
_0-1_レイヤ___1
  6
CONTINUOUS
 62
     7
 10
689.79566999999986
 20
-13.325259000000001
 30
0.0
 11
690.98698000000002
 21
-23.231114999999999
 31
0.0
  0
LINE
  5
73B
  8
_0-1_レイヤ___1
  6
CONTINUOUS
 62
     7
 10
690.98698000000002
 20
-23.231114999999999
 30
0.0
 11
688.06141000000002
 21
-23.612141999999999
 31
0.0
  0
LINE
  5
73C
  8
_0-1_レイヤ___1
  6
CONTINUOUS
 62
     7
 10
686.19726999999989
 20
-8.7105540000000037
 30
0.0
 11
686.83771000000002
 21
-13.663911999999989
 31
0.0
  0
LINE
  5
73D
  8
_0-1_レイヤ___1
  6
CONTINUOUS
 62
     7
 10
686.83771000000002
 20
-13.663911999999989
 30
0.0
 11
689.79566999999986
 21
-13.325259000000001
 31
0.0
  0
LINE
  5
73E
  8
_0-1_レイヤ___1
  6
CONTINUOUS
 62
     7
 10
701.10074999999995
 20
-301.27683999999999
 30
0.0
 11
696.35960999999998
 21
-299.75308000000001
 31
0.0
  0
LINE
  5
73F
  8
_0-1_レイヤ___1
  6
CONTINUOUS
 62
     7
 10
696.35960999999998
 20
-299.75308000000001
 30
0.0
 11
697.29184999999995
 21
-296.87401
 31
0.0
  0
LINE
  5
740
  8
_0-1_レイヤ___1
  6
CONTINUOUS
 62
     7
 10
697.29184999999995
 20
-296.87401
 30
0.0
 11
687.76960999999994
 21
-293.78375999999992
 31
0.0
  0
LINE
  5
741
  8
_0-1_レイヤ___1
  6
CONTINUOUS
 62
     7
 10
687.76960999999994
 20
-293.78375999999992
 30
0.0
 11
686.83771000000002
 21
-296.62011000000001
 31
0.0
  0
LINE
  5
742
  8
_0-1_レイヤ___1
  6
CONTINUOUS
 62
     7
 10
631.76337999999998
 20
-275.45344
 30
0.0
 11
641.24496999999985
 21
-278.54369000000003
 31
0.0
  0
LINE
  5
743
  8
_0-1_レイヤ___1
  6
CONTINUOUS
 62
     7
 10
641.24496999999985
 20
-278.54369000000003
 30
0.0
 11
640.31307000000004
 21
-281.42275999999998
 31
0.0
  0
LINE
  5
744
  8
_0-1_レイヤ___1
  6
CONTINUOUS
 62
     7
 10
631.76337999999998
 20
-275.45344
 30
0.0
 11
630.83114
 21
-278.28978999999998
 31
0.0
  0
LINE
  5
745
  8
_0-1_レイヤ___1
  6
CONTINUOUS
 62
     7
 10
640.31307000000004
 20
-281.42275999999998
 30
0.0
 11
686.83771000000002
 21
-296.62011000000001
 31
0.0
  0
LINE
  5
746
  8
_0-0_0
  6
CONTINUOUS
 62
     7
 10
655.51491999999985
 20
268.88846000000001
 30
0.0
 11
655.51491999999985
 21
258.88846000000001
 31
0.0
  0
LINE
  5
747
  8
_0-0_0
  6
CONTINUOUS
 62
     7
 10
655.51491999999985
 20
148.88846000000001
 30
0.0
 11
655.51491999999985
 21
138.88846000000001
 31
0.0
  0
LINE
  5
748
  8
_0-0_0
  6
CONTINUOUS
 62
     7
 10
655.51491999999985
 20
208.88846000000001
 30
0.0
 11
655.51491999999985
 21
198.88846000000001
 31
0.0
  0
LINE
  5
749
  8
_0-0_0
  6
CONTINUOUS
 62
     7
 10
691.51491999999996
 20
268.88846000000001
 30
0.0
 11
691.51491999999996
 21
258.88846000000001
 31
0.0
  0
LINE
  5
74A
  8
_0-0_0
  6
CONTINUOUS
 62
     7
 10
691.51491999999996
 20
208.88846000000001
 30
0.0
 11
691.51491999999996
 21
198.88846000000001
 31
0.0
  0
LINE
  5
74B
  8
_0-0_0
  6
CONTINUOUS
 62
     7
 10
691.51491999999996
 20
148.88846000000001
 30
0.0
 11
691.51491999999996
 21
138.88846000000001
 31
0.0
  0
LINE
  5
74C
  8
_0-0_0
  6
CONTINUOUS
 62
     7
 10
658.51491999999996
 20
148.88846000000001
 30
0.0
 11
655.51491999999985
 21
148.88846000000001
 31
0.0
  0
LINE
  5
74D
  8
_0-0_0
  6
CONTINUOUS
 62
     7
 10
658.51491999999996
 20
138.88846000000001
 30
0.0
 11
655.51491999999985
 21
138.88846000000001
 31
0.0
  0
LINE
  5
74E
  8
_0-0_0
  6
CONTINUOUS
 62
     7
 10
658.51491999999996
 20
198.88846000000001
 30
0.0
 11
655.51491999999985
 21
198.88846000000001
 31
0.0
  0
LINE
  5
74F
  8
_0-0_0
  6
CONTINUOUS
 62
     7
 10
658.51491999999996
 20
208.88846000000001
 30
0.0
 11
655.51491999999985
 21
208.88846000000001
 31
0.0
  0
LINE
  5
750
  8
_0-0_0
  6
CONTINUOUS
 62
     7
 10
658.51491999999996
 20
258.88846000000001
 30
0.0
 11
655.51491999999985
 21
258.88846000000001
 31
0.0
  0
LINE
  5
751
  8
_0-0_0
  6
CONTINUOUS
 62
     7
 10
658.51491999999996
 20
268.88846000000001
 30
0.0
 11
655.51491999999985
 21
268.88846000000001
 31
0.0
  0
LINE
  5
752
  8
_0-0_0
  6
CONTINUOUS
 62
     7
 10
658.51491999999996
 20
258.88846000000001
 30
0.0
 11
658.51491999999996
 21
208.88846000000001
 31
0.0
  0
LINE
  5
753
  8
_0-0_0
  6
CONTINUOUS
 62
     7
 10
658.51491999999996
 20
198.88846000000001
 30
0.0
 11
658.51491999999996
 21
148.88846000000001
 31
0.0
  0
LINE
  5
754
  8
_0-0_0
  6
CONTINUOUS
 62
     7
 10
688.51491999999985
 20
258.88846000000001
 30
0.0
 11
688.51491999999985
 21
208.88846000000001
 31
0.0
  0
LINE
  5
755
  8
_0-0_0
  6
CONTINUOUS
 62
     7
 10
688.51491999999985
 20
198.88846000000001
 30
0.0
 11
688.51491999999985
 21
148.88846000000001
 31
0.0
  0
LINE
  5
756
  8
_0-0_0
  6
CONTINUOUS
 62
     7
 10
691.51491999999996
 20
268.88846000000001
 30
0.0
 11
688.51491999999985
 21
268.88846000000001
 31
0.0
  0
LINE
  5
757
  8
_0-0_0
  6
CONTINUOUS
 62
     7
 10
691.51491999999996
 20
258.88846000000001
 30
0.0
 11
688.51491999999985
 21
258.88846000000001
 31
0.0
  0
LINE
  5
758
  8
_0-0_0
  6
CONTINUOUS
 62
     7
 10
691.51491999999996
 20
208.88846000000001
 30
0.0
 11
688.51491999999985
 21
208.88846000000001
 31
0.0
  0
LINE
  5
759
  8
_0-0_0
  6
CONTINUOUS
 62
     7
 10
691.51491999999996
 20
198.88846000000001
 30
0.0
 11
688.51491999999985
 21
198.88846000000001
 31
0.0
  0
LINE
  5
75A
  8
_0-0_0
  6
CONTINUOUS
 62
     7
 10
691.51491999999996
 20
148.88846000000001
 30
0.0
 11
688.51491999999985
 21
148.88846000000001
 31
0.0
  0
LINE
  5
75B
  8
_0-0_0
  6
CONTINUOUS
 62
     7
 10
691.51491999999996
 20
138.88846000000001
 30
0.0
 11
688.51491999999985
 21
138.88846000000001
 31
0.0
  0
LINE
  5
75C
  8
_0-0_0
  6
CONTINUOUS
 62
     7
 10
658.51491999999996
 20
288.02346999999992
 30
0.0
 11
688.51491999999985
 21
288.02346999999992
 31
0.0
  0
LINE
  5
75D
  8
_0-0_0
  6
CONTINUOUS
 62
     7
 10
688.51491999999985
 20
288.02346999999992
 30
0.0
 11
688.51491999999985
 21
268.88846000000001
 31
0.0
  0
LINE
  5
75E
  8
_0-0_0
  6
CONTINUOUS
 62
     7
 10
658.51491999999996
 20
288.02346999999992
 30
0.0
 11
658.51491999999996
 21
268.88846000000001
 31
0.0
  0
LINE
  5
75F
  8
_0-0_0
  6
CONTINUOUS
 62
     7
 10
658.51491999999996
 20
118.8884599999999
 30
0.0
 11
688.51491999999985
 21
101.56795
 31
0.0
  0
LINE
  5
760
  8
_0-0_0
  6
CONTINUOUS
 62
     7
 10
688.51491999999985
 20
138.88846000000001
 30
0.0
 11
688.51491999999985
 21
101.56795
 31
0.0
  0
LINE
  5
761
  8
_0-0_0
  6
CONTINUOUS
 62
     7
 10
658.51491999999996
 20
138.88846000000001
 30
0.0
 11
658.51491999999996
 21
118.8884599999999
 31
0.0
  0
LINE
  5
762
  8
_0-0_0
  6
CONTINUOUS
 62
     7
 10
648.63229999999987
 20
323.89704999999992
 30
0.0
 11
649.64377999999988
 21
320.42299000000003
 31
0.0
  0
LINE
  5
763
  8
_0-0_0
  6
CONTINUOUS
 62
     7
 10
647.25735999999995
 20
328.29723000000001
 30
0.0
 11
648.63229999999987
 21
323.89704999999992
 31
0.0
  0
LINE
  5
764
  8
_0-0_0
  6
CONTINUOUS
 62
     7
 10
652.62923000000001
 20
321.09239000000002
 30
0.0
 11
649.64377999999988
 21
320.42299000000003
 31
0.0
  0
LINE
  5
765
  8
_0-0_0
  6
CONTINUOUS
 62
     7
 10
649.63320999999996
 20
330.66890999999993
 30
0.0
 11
646.69161999999994
 21
330.00934999999998
 31
0.0
  0
LINE
  5
766
  8
_0-0_0
  6
CONTINUOUS
 62
     7
 10
678.67533000000003
 20
338.39589000000001
 30
0.0
 11
679.03017999999986
 21
337.26029999999992
 31
0.0
  0
LINE
  5
767
  8
_0-0_0
  6
CONTINUOUS
 62
     7
 10
677.09860000000003
 20
343.16762999999992
 30
0.0
 11
678.67533000000003
 21
338.39589000000001
 31
0.0
  0
LINE
  5
768
  8
_0-0_0
  6
CONTINUOUS
 62
     7
 10
676.14849000000004
 20
345.94322
 30
0.0
 11
677.09860000000003
 21
343.16762999999992
 31
0.0
  0
LINE
  5
769
  8
_0-0_0
  6
CONTINUOUS
 62
     7
 10
675.45623999999998
 20
347.9271
 30
0.0
 11
676.14849000000004
 21
345.94322
 31
0.0
  0
LINE
  5
76A
  8
_0-0_0
  6
CONTINUOUS
 62
     7
 10
674.24686999999994
 20
351.29964000000001
 30
0.0
 11
675.45623999999998
 21
347.9271
 31
0.0
  0
LINE
  5
76B
  8
_0-0_0
  6
CONTINUOUS
 62
     7
 10
672.91777999999999
 20
354.84325999999987
 30
0.0
 11
674.24686999999994
 21
351.29964000000001
 31
0.0
  0
LINE
  5
76C
  8
_0-0_0
  6
CONTINUOUS
 62
     7
 10
668.41421000000003
 20
365.46582000000001
 30
0.0
 11
668.43728999999985
 21
365.41523999999998
 31
0.0
  0
LINE
  5
76D
  8
_0-0_0
  6
CONTINUOUS
 62
     7
 10
641.74414000000002
 20
351.39402999999987
 30
0.0
 11
641.74131999999986
 21
351.40089
 31
0.0
  0
LINE
  5
76E
  8
_0-0_0
  6
CONTINUOUS
 62
     7
 10
652.81610999999998
 20
320.25893999999988
 30
0.0
 11
652.56344000000001
 21
321.07763999999992
 31
0.0
  0
LINE
  5
76F
  8
_0-0_0
  6
CONTINUOUS
 62
     7
 10
647.25735999999995
 20
328.29723000000001
 30
0.0
 11
646.70554000000004
 21
330.01247000000001
 31
0.0
  0
LINE
  5
770
  8
_0-0_0
  6
CONTINUOUS
 62
     7
 10
588.51491999999985
 20
118.8884599999999
 30
0.0
 11
618.51491999999985
 21
118.8884599999999
 31
0.0
  0
LINE
  5
771
  8
_0-0_0
  6
CONTINUOUS
 62
     7
 10
645.51491999999996
 20
268.88846000000001
 30
0.0
 11
645.51491999999996
 21
258.88846000000001
 31
0.0
  0
LINE
  5
772
  8
_0-0_0
  6
CONTINUOUS
 62
     7
 10
645.51491999999996
 20
208.88846000000001
 30
0.0
 11
645.51491999999996
 21
198.88846000000001
 31
0.0
  0
LINE
  5
773
  8
_0-0_0
  6
CONTINUOUS
 62
     7
 10
645.51491999999996
 20
148.88846000000001
 30
0.0
 11
645.51491999999996
 21
138.88846000000001
 31
0.0
  0
LINE
  5
774
  8
_0-0_0
  6
CONTINUOUS
 62
     7
 10
648.51491999999985
 20
288.02346999999992
 30
0.0
 11
648.51491999999985
 21
268.88846000000001
 31
0.0
  0
LINE
  5
775
  8
_0-0_0
  6
CONTINUOUS
 62
     7
 10
648.51491999999985
 20
258.88846000000001
 30
0.0
 11
648.51491999999985
 21
208.88846000000001
 31
0.0
  0
LINE
  5
776
  8
_0-0_0
  6
CONTINUOUS
 62
     7
 10
648.51491999999985
 20
198.88846000000001
 30
0.0
 11
648.51491999999985
 21
148.88846000000001
 31
0.0
  0
LINE
  5
777
  8
_0-0_0
  6
CONTINUOUS
 62
     7
 10
648.51491999999985
 20
268.88846000000001
 30
0.0
 11
645.51491999999996
 21
268.88846000000001
 31
0.0
  0
LINE
  5
778
  8
_0-0_0
  6
CONTINUOUS
 62
     7
 10
648.51491999999985
 20
258.88846000000001
 30
0.0
 11
645.51491999999996
 21
258.88846000000001
 31
0.0
  0
LINE
  5
779
  8
_0-0_0
  6
CONTINUOUS
 62
     7
 10
648.51491999999985
 20
208.88846000000001
 30
0.0
 11
645.51491999999996
 21
208.88846000000001
 31
0.0
  0
LINE
  5
77A
  8
_0-0_0
  6
CONTINUOUS
 62
     7
 10
648.51491999999985
 20
198.88846000000001
 30
0.0
 11
645.51491999999996
 21
198.88846000000001
 31
0.0
  0
LINE
  5
77B
  8
_0-0_0
  6
CONTINUOUS
 62
     7
 10
648.51491999999985
 20
148.88846000000001
 30
0.0
 11
645.51491999999996
 21
148.88846000000001
 31
0.0
  0
LINE
  5
77C
  8
_0-0_0
  6
CONTINUOUS
 62
     7
 10
648.51491999999985
 20
138.88846000000001
 30
0.0
 11
645.51491999999996
 21
138.88846000000001
 31
0.0
  0
LINE
  5
77D
  8
_0-0_0
  6
CONTINUOUS
 62
     7
 10
648.51491999999985
 20
138.88846000000001
 30
0.0
 11
648.51491999999985
 21
118.8884599999999
 31
0.0
  0
LINE
  5
77E
  8
_0-0_0
  6
CONTINUOUS
 62
     7
 10
636.88630000000001
 20
327.81079999999992
 30
0.0
 11
637.73676
 21
325.23702999999989
 31
0.0
  0
LINE
  5
77F
  8
_0-0_0
  6
CONTINUOUS
 62
     7
 10
637.73676
 20
325.23702999999989
 30
0.0
 11
639.05827999999985
 21
321.00778999999989
 31
0.0
  0
LINE
  5
780
  8
_0-0_0
  6
CONTINUOUS
 62
     7
 10
639.05827999999985
 20
321.00778999999989
 30
0.0
 11
639.86680999999999
 21
318.23079999999987
 31
0.0
  0
LINE
  5
781
  8
_0-0_0
  6
CONTINUOUS
 62
     7
 10
639.8279
 20
328.47037
 30
0.0
 11
636.88630000000001
 21
327.81079999999992
 31
0.0
  0
LINE
  5
782
  8
_0-0_0
  6
CONTINUOUS
 62
     7
 10
642.79989999999987
 20
318.88846000000001
 30
0.0
 11
639.86680999999999
 21
318.23079999999987
 31
0.0
  0
LINE
  5
783
  8
_0-0_0
  6
CONTINUOUS
 62
     7
 10
648.51491999999985
 20
118.8884599999999
 30
0.0
 11
618.51491999999985
 21
118.8884599999999
 31
0.0
  0
LINE
  5
784
  8
_0-0_0
  6
CONTINUOUS
 62
     7
 10
648.20041000000003
 20
291.63303000000002
 30
0.0
 11
648.51491999999985
 21
288.02346999999992
 31
0.0
  0
LINE
  5
785
  8
_0-0_0
  6
CONTINUOUS
 62
     7
 10
646.91357000000005
 20
300.99002000000002
 30
0.0
 11
648.20041000000003
 21
291.63303000000002
 31
0.0
  0
LINE
  5
786
  8
_0-0_0
  6
CONTINUOUS
 62
     7
 10
645.91411000000005
 20
306.37666999999988
 30
0.0
 11
646.91357000000005
 21
300.99002000000002
 31
0.0
  0
LINE
  5
787
  8
_0-0_0
  6
CONTINUOUS
 62
     7
 10
645.37162000000001
 20
308.90638000000001
 30
0.0
 11
645.91411000000005
 21
306.37666999999988
 31
0.0
  0
LINE
  5
788
  8
_0-0_0
  6
CONTINUOUS
 62
     7
 10
644.33491000000004
 20
313.25058999999987
 30
0.0
 11
645.37162000000001
 21
308.90638000000001
 31
0.0
  0
LINE
  5
789
  8
_0-0_0
  6
CONTINUOUS
 62
     7
 10
643.18284000000006
 20
317.57319999999987
 30
0.0
 11
644.33491000000004
 21
313.25058999999987
 31
0.0
  0
LINE
  5
78A
  8
_0-0_0
  6
CONTINUOUS
 62
     7
 10
642.79989999999987
 20
318.88846000000001
 30
0.0
 11
643.18284000000006
 21
317.57319999999987
 31
0.0
  0
LINE
  5
78B
  8
_0-0_0
  6
CONTINUOUS
 62
     7
 10
618.51491999999985
 20
368.88846000000001
 30
0.0
 11
619.04195000000004
 21
368.28958
 31
0.0
  0
LINE
  5
78C
  8
_0-0_0
  6
CONTINUOUS
 62
     7
 10
619.04195000000004
 20
368.28958
 30
0.0
 11
619.94834000000003
 21
367.25522999999993
 31
0.0
  0
LINE
  5
78D
  8
_0-0_0
  6
CONTINUOUS
 62
     7
 10
619.94834000000003
 20
367.25522999999993
 30
0.0
 11
620.84837000000016
 21
366.21586000000002
 31
0.0
  0
LINE
  5
78E
  8
_0-0_0
  6
CONTINUOUS
 62
     7
 10
620.84837000000016
 20
366.21586000000002
 30
0.0
 11
621.73801000000003
 21
365.16831000000002
 31
0.0
  0
LINE
  5
78F
  8
_0-0_0
  6
CONTINUOUS
 62
     7
 10
621.73801000000003
 20
365.16831000000002
 30
0.0
 11
622.61323000000004
 21
364.10937999999999
 31
0.0
  0
LINE
  5
790
  8
_0-0_0
  6
CONTINUOUS
 62
     7
 10
622.61323000000004
 20
364.10937999999999
 30
0.0
 11
623.47001
 21
363.03591999999998
 31
0.0
  0
LINE
  5
791
  8
_0-0_0
  6
CONTINUOUS
 62
     7
 10
623.47001
 20
363.03591999999998
 30
0.0
 11
623.95690000000002
 21
362.40539999999999
 31
0.0
  0
LINE
  5
792
  8
_0-0_0
  6
CONTINUOUS
 62
     7
 10
623.95690000000002
 20
362.40539999999999
 30
0.0
 11
624.73116000000005
 21
361.36633999999998
 31
0.0
  0
LINE
  5
793
  8
_0-0_0
  6
CONTINUOUS
 62
     7
 10
624.73116000000005
 20
361.36633999999998
 30
0.0
 11
626.01568999999995
 21
359.53676999999999
 31
0.0
  0
LINE
  5
794
  8
_0-0_0
  6
CONTINUOUS
 62
     7
 10
626.01568999999995
 20
359.53676999999999
 30
0.0
 11
627.23860999999999
 21
357.66320999999988
 31
0.0
  0
LINE
  5
795
  8
_0-0_0
  6
CONTINUOUS
 62
     7
 10
627.23860999999999
 20
357.66320999999988
 30
0.0
 11
628.40241000000003
 21
355.75053000000003
 31
0.0
  0
LINE
  5
796
  8
_0-0_0
  6
CONTINUOUS
 62
     7
 10
628.40241000000003
 20
355.75053000000003
 30
0.0
 11
629.50962000000004
 21
353.80363999999992
 31
0.0
  0
LINE
  5
797
  8
_0-0_0
  6
CONTINUOUS
 62
     7
 10
629.50962000000004
 20
353.80363999999992
 30
0.0
 11
630.56275000000005
 21
351.82738999999998
 31
0.0
  0
LINE
  5
798
  8
_0-0_0
  6
CONTINUOUS
 62
     7
 10
630.56275000000005
 20
351.82738999999998
 30
0.0
 11
631.14977999999985
 21
350.66966000000002
 31
0.0
  0
LINE
  5
799
  8
_0-0_0
  6
CONTINUOUS
 62
     7
 10
631.14977999999985
 20
350.66966000000002
 30
0.0
 11
631.94041000000004
 21
349.04325
 31
0.0
  0
LINE
  5
79A
  8
_0-0_0
  6
CONTINUOUS
 62
     7
 10
631.94041000000004
 20
349.04325
 30
0.0
 11
633.23352999999986
 21
346.20888000000002
 31
0.0
  0
LINE
  5
79B
  8
_0-0_0
  6
CONTINUOUS
 62
     7
 10
633.23352999999986
 20
346.20888000000002
 30
0.0
 11
634.44848000000002
 21
343.34079000000008
 31
0.0
  0
LINE
  5
79C
  8
_0-0_0
  6
CONTINUOUS
 62
     7
 10
634.44848000000002
 20
343.34079000000008
 30
0.0
 11
635.59742000000017
 21
340.44422999999989
 31
0.0
  0
LINE
  5
79D
  8
_0-0_0
  6
CONTINUOUS
 62
     7
 10
635.59742000000017
 20
340.44422999999989
 30
0.0
 11
636.69253000000003
 21
337.52447000000001
 31
0.0
  0
LINE
  5
79E
  8
_0-0_0
  6
CONTINUOUS
 62
     7
 10
636.69253000000003
 20
337.52447000000001
 30
0.0
 11
637.74595999999985
 21
334.58676000000003
 31
0.0
  0
LINE
  5
79F
  8
_0-0_0
  6
CONTINUOUS
 62
     7
 10
637.74595999999985
 20
334.58676000000003
 30
0.0
 11
638.34265999999991
 21
332.87675000000002
 31
0.0
  0
LINE
  5
7A0
  8
_0-0_0
  6
CONTINUOUS
 62
     7
 10
638.34265999999991
 20
332.87675000000002
 30
0.0
 11
639.18528000000003
 21
330.41514000000001
 31
0.0
  0
LINE
  5
7A1
  8
_0-0_0
  6
CONTINUOUS
 62
     7
 10
639.18528000000003
 20
330.41514000000001
 30
0.0
 11
639.8279
 21
328.47037
 31
0.0
  0
LINE
  5
7A2
  8
_0-0_0
  6
CONTINUOUS
 62
     7
 10
582.03485999999987
 20
29.456641000000001
 30
0.0
 11
697.92204000000004
 21
29.456641000000001
 31
0.0
  0
LINE
  5
7A3
  8
_0-0_0
  6
CONTINUOUS
 62
     7
 10
641.46942000000001
 20
14.330207
 30
0.0
 11
697.92204000000004
 21
29.456641000000001
 31
0.0
  0
LINE
  5
7A4
  8
_0-1_レイヤ___1
  6
CONTINUOUS
 62
     7
 10
641.46942000000001
 20
14.330207
 30
0.0
 11
642.24747999999988
 21
11.426448999999989
 31
0.0
  0
LINE
  5
7A5
  8
_0-0_0
  6
CONTINUOUS
 62
     7
 10
658.15378999999984
 20
292.87841999999989
 30
0.0
 11
687.70849999999996
 21
295.27560999999992
 31
0.0
  0
LINE
  5
7A6
  8
_0-0_0
  6
CONTINUOUS
 62
     7
 10
681.71591999999987
 20
328.31614999999988
 30
0.0
 11
683.12068999999985
 21
323.04538000000002
 31
0.0
  0
LINE
  5
7A7
  8
_0-0_0
  6
CONTINUOUS
 62
     7
 10
683.12068999999985
 20
323.04538000000002
 30
0.0
 11
684.38592000000006
 21
317.74358999999993
 31
0.0
  0
LINE
  5
7A8
  8
_0-0_0
  6
CONTINUOUS
 62
     7
 10
684.38592000000006
 20
317.74358999999993
 30
0.0
 11
685.14144999999985
 21
314.22041000000002
 31
0.0
  0
LINE
  5
7A9
  8
_0-0_0
  6
CONTINUOUS
 62
     7
 10
685.14144999999985
 20
314.22041000000002
 30
0.0
 11
686.41306999999995
 21
307.36702999999989
 31
0.0
  0
LINE
  5
7AA
  8
_0-0_0
  6
CONTINUOUS
 62
     7
 10
686.41306999999995
 20
307.36702999999989
 30
0.0
 11
687.96303
 21
296.09676000000002
 31
0.0
  0
LINE
  5
7AB
  8
_0-0_0
  6
CONTINUOUS
 62
     7
 10
652.81610999999998
 20
320.25893999999988
 30
0.0
 11
654.03135999999995
 21
315.69929000000002
 31
0.0
  0
LINE
  5
7AC
  8
_0-0_0
  6
CONTINUOUS
 62
     7
 10
654.03135999999995
 20
315.69929000000002
 30
0.0
 11
655.12518999999986
 21
311.11567999999988
 31
0.0
  0
LINE
  5
7AD
  8
_0-0_0
  6
CONTINUOUS
 62
     7
 10
655.12518999999986
 20
311.11567999999988
 30
0.0
 11
655.72094000000004
 21
308.33760999999993
 31
0.0
  0
LINE
  5
7AE
  8
_0-0_0
  6
CONTINUOUS
 62
     7
 10
655.72094000000004
 20
308.33760999999993
 30
0.0
 11
656.7884499999999
 21
302.58427
 31
0.0
  0
LINE
  5
7AF
  8
_0-0_0
  6
CONTINUOUS
 62
     7
 10
656.7884499999999
 20
302.58427
 30
0.0
 11
658.12382999999988
 21
292.87430000000001
 31
0.0
  0
LINE
  5
7B0
  8
_0-0_0
  6
CONTINUOUS
 62
     7
 10
681.89245000000005
 20
327.65377999999993
 30
0.0
 11
681.62904000000003
 21
328.56040000000002
 31
0.0
  0
LINE
  5
7B1
  8
_0-0_0
  6
CONTINUOUS
 62
     7
 10
681.62904000000003
 20
328.56040000000002
 30
0.0
 11
681.17393000000004
 21
330.12320999999997
 31
0.0
  0
LINE
  5
7B2
  8
_0-0_0
  6
CONTINUOUS
 62
     7
 10
681.17393000000004
 20
330.12320999999997
 30
0.0
 11
680.71617000000003
 21
331.68508999999989
 31
0.0
  0
LINE
  5
7B3
  8
_0-0_0
  6
CONTINUOUS
 62
     7
 10
680.71617000000003
 20
331.68508999999989
 30
0.0
 11
680.25409000000002
 21
333.24549000000002
 31
0.0
  0
LINE
  5
7B4
  8
_0-0_0
  6
CONTINUOUS
 62
     7
 10
680.25409000000002
 20
333.24549000000002
 30
0.0
 11
679.78602000000001
 21
334.80380000000002
 31
0.0
  0
LINE
  5
7B5
  8
_0-0_0
  6
CONTINUOUS
 62
     7
 10
679.78602000000001
 20
334.80380000000002
 30
0.0
 11
679.31028000000003
 21
336.35946000000001
 31
0.0
  0
LINE
  5
7B6
  8
_0-0_0
  6
CONTINUOUS
 62
     7
 10
679.31028000000003
 20
336.35946000000001
 30
0.0
 11
679.03017999999986
 21
337.26029999999992
 31
0.0
  0
LINE
  5
7B7
  8
_0-0_0
  6
CONTINUOUS
 62
     7
 10
679.03017999999986
 20
337.26029999999992
 30
0.0
 11
678.39110000000005
 21
339.27219000000002
 31
0.0
  0
LINE
  5
7B8
  8
_0-0_0
  6
CONTINUOUS
 62
     7
 10
678.39110000000005
 20
339.27219000000002
 30
0.0
 11
677.25292999999999
 21
342.72872000000001
 31
0.0
  0
LINE
  5
7B9
  8
_0-0_0
  6
CONTINUOUS
 62
     7
 10
677.25292999999999
 20
342.72872000000001
 30
0.0
 11
676.07559000000003
 21
346.17261999999999
 31
0.0
  0
LINE
  5
7BA
  8
_0-0_0
  6
CONTINUOUS
 62
     7
 10
676.07559000000003
 20
346.17261999999999
 30
0.0
 11
674.86698999999999
 21
349.60719
 31
0.0
  0
LINE
  5
7BB
  8
_0-0_0
  6
CONTINUOUS
 62
     7
 10
674.86698999999999
 20
349.60719
 30
0.0
 11
673.63505999999995
 21
353.03577999999987
 31
0.0
  0
LINE
  5
7BC
  8
_0-0_0
  6
CONTINUOUS
 62
     7
 10
673.63505999999995
 20
353.03577999999987
 30
0.0
 11
672.38769000000002
 21
356.46168999999992
 31
0.0
  0
LINE
  5
7BD
  8
_0-0_0
  6
CONTINUOUS
 62
     7
 10
672.38769000000002
 20
356.46168999999992
 30
0.0
 11
671.66026999999997
 21
358.44880999999992
 31
0.0
  0
LINE
  5
7BE
  8
_0-0_0
  6
CONTINUOUS
 62
     7
 10
671.66026999999997
 20
358.44880999999992
 30
0.0
 11
670.69258999999988
 21
361.08553000000001
 31
0.0
  0
LINE
  5
7BF
  8
_0-0_0
  6
CONTINUOUS
 62
     7
 10
670.69258999999988
 20
361.08553000000001
 30
0.0
 11
669.00509999999986
 21
365.62655999999993
 31
0.0
  0
LINE
  5
7C0
  8
_0-0_0
  6
CONTINUOUS
 62
     7
 10
669.00509999999986
 20
365.62655999999993
 30
0.0
 11
667.27075000000002
 21
370.14812999999992
 31
0.0
  0
LINE
  5
7C1
  8
_0-0_0
  6
CONTINUOUS
 62
     7
 10
667.27075000000002
 20
370.14812999999992
 30
0.0
 11
665.46313999999995
 21
374.6350599999999
 31
0.0
  0
LINE
  5
7C2
  8
_0-0_0
  6
CONTINUOUS
 62
     7
 10
665.46313999999995
 20
374.6350599999999
 30
0.0
 11
663.55588
 21
379.07215999999988
 31
0.0
  0
LINE
  5
7C3
  8
_0-0_0
  6
CONTINUOUS
 62
     7
 10
663.55588
 20
379.07215999999988
 30
0.0
 11
661.52256
 21
383.44423
 31
0.0
  0
LINE
  5
7C4
  8
_0-0_0
  6
CONTINUOUS
 62
     7
 10
661.52256
 20
383.44423
 30
0.0
 11
660.27507000000003
 21
385.94425000000001
 31
0.0
  0
LINE
  5
7C5
  8
_0-0_0
  6
CONTINUOUS
 62
     7
 10
660.27507000000003
 20
385.94425000000001
 30
0.0
 11
658.76215000000002
 21
388.80306000000002
 31
0.0
  0
LINE
  5
7C6
  8
_0-0_0
  6
CONTINUOUS
 62
     7
 10
658.76215000000002
 20
388.80306000000002
 30
0.0
 11
655.99671000000001
 21
393.64875000000001
 31
0.0
  0
LINE
  5
7C7
  8
_0-0_0
  6
CONTINUOUS
 62
     7
 10
655.99671000000001
 20
393.64875000000001
 30
0.0
 11
653.06401000000017
 21
398.40568000000002
 31
0.0
  0
LINE
  5
7C8
  8
_0-0_0
  6
CONTINUOUS
 62
     7
 10
653.06401000000017
 20
398.40568000000002
 30
0.0
 11
650.00055999999995
 21
403.09322999999989
 31
0.0
  0
LINE
  5
7C9
  8
_0-0_0
  6
CONTINUOUS
 62
     7
 10
650.00055999999995
 20
403.09322999999989
 30
0.0
 11
646.84289000000001
 21
407.73077000000001
 31
0.0
  0
LINE
  5
7CA
  8
_0-0_0
  6
CONTINUOUS
 62
     7
 10
646.84289000000001
 20
407.73077000000001
 30
0.0
 11
645.93723999999986
 21
409.02837999999991
 31
0.0
  0
LINE
  5
7CB
  8
_0-0_0
  6
CONTINUOUS
 62
     7
 10
631.85595999999998
 20
373.34217999999993
 30
0.0
 11
645.93723999999986
 21
409.02837999999991
 31
0.0
  0
LINE
  5
7CC
  8
_0-0_0
  6
CONTINUOUS
 62
     7
 10
631.52322000000004
 20
373.91849999999988
 30
0.0
 11
631.35798999999986
 21
374.20468
 31
0.0
  0
LINE
  5
7CD
  8
_0-0_0
  6
CONTINUOUS
 62
     7
 10
649.63320999999996
 20
330.66890999999993
 30
0.0
 11
649.19689000000005
 21
332.06842999999992
 31
0.0
  0
LINE
  5
7CE
  8
_0-0_0
  6
CONTINUOUS
 62
     7
 10
649.19689000000005
 20
332.06842999999992
 30
0.0
 11
648.44213000000002
 21
334.48066999999992
 31
0.0
  0
LINE
  5
7CF
  8
_0-0_0
  6
CONTINUOUS
 62
     7
 10
648.44213000000002
 20
334.48066999999992
 30
0.0
 11
647.68046000000004
 21
336.89086999999989
 31
0.0
  0
LINE
  5
7D0
  8
_0-0_0
  6
CONTINUOUS
 62
     7
 10
647.68046000000004
 20
336.89086999999989
 30
0.0
 11
646.90751999999986
 21
339.29775999999998
 31
0.0
  0
LINE
  5
7D1
  8
_0-0_0
  6
CONTINUOUS
 62
     7
 10
646.90751999999986
 20
339.29775999999998
 30
0.0
 11
646.11892999999998
 21
341.70006000000001
 31
0.0
  0
LINE
  5
7D2
  8
_0-0_0
  6
CONTINUOUS
 62
     7
 10
646.11892999999998
 20
341.70006000000001
 30
0.0
 11
645.31033000000002
 21
344.09647000000001
 31
0.0
  0
LINE
  5
7D3
  8
_0-0_0
  6
CONTINUOUS
 62
     7
 10
645.31033000000002
 20
344.09647000000001
 30
0.0
 11
644.83045000000004
 21
345.48318999999992
 31
0.0
  0
LINE
  5
7D4
  8
_0-0_0
  6
CONTINUOUS
 62
     7
 10
644.83045000000004
 20
345.48318999999992
 30
0.0
 11
644.25635
 21
347.10527999999988
 31
0.0
  0
LINE
  5
7D5
  8
_0-0_0
  6
CONTINUOUS
 62
     7
 10
644.25635
 20
347.10527999999988
 30
0.0
 11
643.23400000000004
 21
349.89100000000002
 31
0.0
  0
LINE
  5
7D6
  8
_0-0_0
  6
CONTINUOUS
 62
     7
 10
643.23400000000004
 20
349.89100000000002
 30
0.0
 11
642.16543000000001
 21
352.65915999999987
 31
0.0
  0
LINE
  5
7D7
  8
_0-0_0
  6
CONTINUOUS
 62
     7
 10
642.16543000000001
 20
352.65915999999987
 30
0.0
 11
641.04481999999985
 21
355.40553999999992
 31
0.0
  0
LINE
  5
7D8
  8
_0-0_0
  6
CONTINUOUS
 62
     7
 10
641.04481999999985
 20
355.40553999999992
 30
0.0
 11
639.86632999999995
 21
358.1259
 31
0.0
  0
LINE
  5
7D9
  8
_0-0_0
  6
CONTINUOUS
 62
     7
 10
639.86632999999995
 20
358.1259
 30
0.0
 11
638.62411999999995
 21
360.81601999999992
 31
0.0
  0
LINE
  5
7DA
  8
_0-0_0
  6
CONTINUOUS
 62
     7
 10
638.62411999999995
 20
360.81601999999992
 30
0.0
 11
637.87215000000003
 21
362.36076999999989
 31
0.0
  0
LINE
  5
7DB
  8
_0-0_0
  6
CONTINUOUS
 62
     7
 10
637.87215000000003
 20
362.36076999999989
 30
0.0
 11
637.29990999999995
 21
363.49675000000002
 31
0.0
  0
LINE
  5
7DC
  8
_0-0_0
  6
CONTINUOUS
 62
     7
 10
637.29990999999995
 20
363.49675000000002
 30
0.0
 11
636.28539000000001
 21
365.44123000000002
 31
0.0
  0
LINE
  5
7DD
  8
_0-0_0
  6
CONTINUOUS
 62
     7
 10
636.28539000000001
 20
365.44123000000002
 30
0.0
 11
635.24113999999997
 21
367.37065000000001
 31
0.0
  0
LINE
  5
7DE
  8
_0-0_0
  6
CONTINUOUS
 62
     7
 10
635.24113999999997
 20
367.37065000000001
 30
0.0
 11
634.17366000000004
 21
369.28829999999999
 31
0.0
  0
LINE
  5
7DF
  8
_0-0_0
  6
CONTINUOUS
 62
     7
 10
634.17366000000004
 20
369.28829999999999
 30
0.0
 11
633.08942000000002
 21
371.19747999999998
 31
0.0
  0
LINE
  5
7E0
  8
_0-0_0
  6
CONTINUOUS
 62
     7
 10
633.08942000000002
 20
371.19747999999998
 30
0.0
 11
631.99494000000004
 21
373.10145999999992
 31
0.0
  0
LINE
  5
7E1
  8
_0-0_0
  6
CONTINUOUS
 62
     7
 10
631.99494000000004
 20
373.10145999999992
 30
0.0
 11
631.85595999999998
 21
373.34217999999993
 31
0.0
  0
LINE
  5
7E2
  8
_0-0_0
  6
CONTINUOUS
 62
     7
 10
618.29854999999998
 20
432.94153999999997
 30
0.0
 11
618.51491999999985
 21
433.0992
 31
0.0
  0
LINE
  5
7E3
  8
_0-0_0
  6
CONTINUOUS
 62
     7
 10
582.56898999999987
 20
268.88846000000001
 30
0.0
 11
582.56898999999987
 21
258.88846000000001
 31
0.0
  0
LINE
  5
7E4
  8
_0-0_0
  6
CONTINUOUS
 62
     7
 10
582.56898999999987
 20
148.88846000000001
 30
0.0
 11
582.56898999999987
 21
138.88846000000001
 31
0.0
  0
LINE
  5
7E5
  8
_0-0_0
  6
CONTINUOUS
 62
     7
 10
582.56898999999987
 20
208.88846000000001
 30
0.0
 11
582.56898999999987
 21
198.88846000000001
 31
0.0
  0
LINE
  5
7E6
  8
_0-0_0
  6
CONTINUOUS
 62
     7
 10
546.56898999999999
 20
268.88846000000001
 30
0.0
 11
546.56898999999999
 21
258.88846000000001
 31
0.0
  0
LINE
  5
7E7
  8
_0-0_0
  6
CONTINUOUS
 62
     7
 10
546.56898999999999
 20
208.88846000000001
 30
0.0
 11
546.56898999999999
 21
198.88846000000001
 31
0.0
  0
LINE
  5
7E8
  8
_0-0_0
  6
CONTINUOUS
 62
     7
 10
546.56898999999999
 20
148.88846000000001
 30
0.0
 11
546.56898999999999
 21
138.88846000000001
 31
0.0
  0
LINE
  5
7E9
  8
_0-0_0
  6
CONTINUOUS
 62
     7
 10
579.56898999999999
 20
148.88846000000001
 30
0.0
 11
582.56898999999987
 21
148.88846000000001
 31
0.0
  0
LINE
  5
7EA
  8
_0-0_0
  6
CONTINUOUS
 62
     7
 10
579.56898999999999
 20
138.88846000000001
 30
0.0
 11
582.56898999999987
 21
138.88846000000001
 31
0.0
  0
LINE
  5
7EB
  8
_0-0_0
  6
CONTINUOUS
 62
     7
 10
579.56898999999999
 20
198.88846000000001
 30
0.0
 11
582.56898999999987
 21
198.88846000000001
 31
0.0
  0
LINE
  5
7EC
  8
_0-0_0
  6
CONTINUOUS
 62
     7
 10
579.56898999999999
 20
208.88846000000001
 30
0.0
 11
582.56898999999987
 21
208.88846000000001
 31
0.0
  0
LINE
  5
7ED
  8
_0-0_0
  6
CONTINUOUS
 62
     7
 10
579.56898999999999
 20
258.88846000000001
 30
0.0
 11
582.56898999999987
 21
258.88846000000001
 31
0.0
  0
LINE
  5
7EE
  8
_0-0_0
  6
CONTINUOUS
 62
     7
 10
579.56898999999999
 20
268.88846000000001
 30
0.0
 11
582.56898999999987
 21
268.88846000000001
 31
0.0
  0
LINE
  5
7EF
  8
_0-0_0
  6
CONTINUOUS
 62
     7
 10
579.56898999999999
 20
258.88846000000001
 30
0.0
 11
579.56898999999999
 21
208.88846000000001
 31
0.0
  0
LINE
  5
7F0
  8
_0-0_0
  6
CONTINUOUS
 62
     7
 10
579.56898999999999
 20
198.88846000000001
 30
0.0
 11
579.56898999999999
 21
148.88846000000001
 31
0.0
  0
LINE
  5
7F1
  8
_0-0_0
  6
CONTINUOUS
 62
     7
 10
549.56898999999999
 20
258.88846000000001
 30
0.0
 11
549.56898999999999
 21
208.88846000000001
 31
0.0
  0
LINE
  5
7F2
  8
_0-0_0
  6
CONTINUOUS
 62
     7
 10
549.56898999999999
 20
198.88846000000001
 30
0.0
 11
549.56898999999999
 21
148.88846000000001
 31
0.0
  0
LINE
  5
7F3
  8
_0-0_0
  6
CONTINUOUS
 62
     7
 10
546.56898999999999
 20
268.88846000000001
 30
0.0
 11
549.56898999999999
 21
268.88846000000001
 31
0.0
  0
LINE
  5
7F4
  8
_0-0_0
  6
CONTINUOUS
 62
     7
 10
546.56898999999999
 20
258.88846000000001
 30
0.0
 11
549.56898999999999
 21
258.88846000000001
 31
0.0
  0
LINE
  5
7F5
  8
_0-0_0
  6
CONTINUOUS
 62
     7
 10
546.56898999999999
 20
208.88846000000001
 30
0.0
 11
549.56898999999999
 21
208.88846000000001
 31
0.0
  0
LINE
  5
7F6
  8
_0-0_0
  6
CONTINUOUS
 62
     7
 10
546.56898999999999
 20
198.88846000000001
 30
0.0
 11
549.56898999999999
 21
198.88846000000001
 31
0.0
  0
LINE
  5
7F7
  8
_0-0_0
  6
CONTINUOUS
 62
     7
 10
546.56898999999999
 20
148.88846000000001
 30
0.0
 11
549.56898999999999
 21
148.88846000000001
 31
0.0
  0
LINE
  5
7F8
  8
_0-0_0
  6
CONTINUOUS
 62
     7
 10
546.56898999999999
 20
138.88846000000001
 30
0.0
 11
549.56898999999999
 21
138.88846000000001
 31
0.0
  0
LINE
  5
7F9
  8
_0-0_0
  6
CONTINUOUS
 62
     7
 10
579.56898999999999
 20
288.02346999999992
 30
0.0
 11
549.56898999999999
 21
288.02346999999992
 31
0.0
  0
LINE
  5
7FA
  8
_0-0_0
  6
CONTINUOUS
 62
     7
 10
549.56898999999999
 20
288.02346999999992
 30
0.0
 11
549.56898999999999
 21
268.88846000000001
 31
0.0
  0
LINE
  5
7FB
  8
_0-0_0
  6
CONTINUOUS
 62
     7
 10
579.56898999999999
 20
288.02346999999992
 30
0.0
 11
579.56898999999999
 21
268.88846000000001
 31
0.0
  0
LINE
  5
7FC
  8
_0-0_0
  6
CONTINUOUS
 62
     7
 10
579.56898999999999
 20
118.8884599999999
 30
0.0
 11
549.56898999999999
 21
101.56795
 31
0.0
  0
LINE
  5
7FD
  8
_0-0_0
  6
CONTINUOUS
 62
     7
 10
549.56898999999999
 20
138.88846000000001
 30
0.0
 11
549.56898999999999
 21
101.56795
 31
0.0
  0
LINE
  5
7FE
  8
_0-0_0
  6
CONTINUOUS
 62
     7
 10
579.56898999999999
 20
138.88846000000001
 30
0.0
 11
579.56898999999999
 21
118.8884599999999
 31
0.0
  0
LINE
  5
7FF
  8
_0-0_0
  6
CONTINUOUS
 62
     7
 10
589.45160999999985
 20
323.89704999999992
 30
0.0
 11
588.44012999999995
 21
320.42299000000003
 31
0.0
  0
LINE
  5
800
  8
_0-0_0
  6
CONTINUOUS
 62
     7
 10
590.82654999999988
 20
328.29723000000001
 30
0.0
 11
589.45160999999985
 21
323.89704999999992
 31
0.0
  0
LINE
  5
801
  8
_0-0_0
  6
CONTINUOUS
 62
     7
 10
585.45468000000005
 20
321.09239000000002
 30
0.0
 11
588.44012999999995
 21
320.42299000000003
 31
0.0
  0
LINE
  5
802
  8
_0-0_0
  6
CONTINUOUS
 62
     7
 10
588.45069999999998
 20
330.66890999999993
 30
0.0
 11
591.39229
 21
330.00934999999998
 31
0.0
  0
LINE
  5
803
  8
_0-0_0
  6
CONTINUOUS
 62
     7
 10
559.40857000000005
 20
338.39589000000001
 30
0.0
 11
559.05372999999997
 21
337.26029999999992
 31
0.0
  0
LINE
  5
804
  8
_0-0_0
  6
CONTINUOUS
 62
     7
 10
560.98531000000003
 20
343.16762999999992
 30
0.0
 11
559.40857000000005
 21
338.39589000000001
 31
0.0
  0
LINE
  5
805
  8
_0-0_0
  6
CONTINUOUS
 62
     7
 10
561.93541000000005
 20
345.94322
 30
0.0
 11
560.98531000000003
 21
343.16762999999992
 31
0.0
  0
LINE
  5
806
  8
_0-0_0
  6
CONTINUOUS
 62
     7
 10
562.62766999999997
 20
347.9271
 30
0.0
 11
561.93541000000005
 21
345.94322
 31
0.0
  0
LINE
  5
807
  8
_0-0_0
  6
CONTINUOUS
 62
     7
 10
563.83704
 20
351.29964000000001
 30
0.0
 11
562.62766999999997
 21
347.9271
 31
0.0
  0
LINE
  5
808
  8
_0-0_0
  6
CONTINUOUS
 62
     7
 10
565.16612999999995
 20
354.84325999999987
 30
0.0
 11
563.83704
 21
351.29964000000001
 31
0.0
  0
LINE
  5
809
  8
_0-0_0
  6
CONTINUOUS
 62
     7
 10
569.66970000000003
 20
365.46582000000001
 30
0.0
 11
569.64661999999987
 21
365.41523999999998
 31
0.0
  0
LINE
  5
80A
  8
_0-0_0
  6
CONTINUOUS
 62
     7
 10
596.33977000000004
 20
351.39402999999987
 30
0.0
 11
596.34258999999986
 21
351.40089
 31
0.0
  0
LINE
  5
80B
  8
_0-0_0
  6
CONTINUOUS
 62
     7
 10
585.26779999999997
 20
320.25893999999988
 30
0.0
 11
585.52047000000005
 21
321.07763999999992
 31
0.0
  0
LINE
  5
80C
  8
_0-0_0
  6
CONTINUOUS
 62
     7
 10
590.82654999999988
 20
328.29723000000001
 30
0.0
 11
591.37837000000002
 21
330.01247000000001
 31
0.0
  0
LINE
  5
80D
  8
_0-0_0
  6
CONTINUOUS
 62
     7
 10
649.56898999999999
 20
118.8884599999999
 30
0.0
 11
619.56898999999987
 21
118.8884599999999
 31
0.0
  0
LINE
  5
80E
  8
_0-0_0
  6
CONTINUOUS
 62
     7
 10
592.56898999999999
 20
268.88846000000001
 30
0.0
 11
592.56898999999999
 21
258.88846000000001
 31
0.0
  0
LINE
  5
80F
  8
_0-0_0
  6
CONTINUOUS
 62
     7
 10
592.56898999999999
 20
208.88846000000001
 30
0.0
 11
592.56898999999999
 21
198.88846000000001
 31
0.0
  0
LINE
  5
810
  8
_0-0_0
  6
CONTINUOUS
 62
     7
 10
592.56898999999999
 20
148.88846000000001
 30
0.0
 11
592.56898999999999
 21
138.88846000000001
 31
0.0
  0
LINE
  5
811
  8
_0-0_0
  6
CONTINUOUS
 62
     7
 10
589.56898999999987
 20
288.02346999999992
 30
0.0
 11
589.56898999999987
 21
268.88846000000001
 31
0.0
  0
LINE
  5
812
  8
_0-0_0
  6
CONTINUOUS
 62
     7
 10
589.56898999999987
 20
258.88846000000001
 30
0.0
 11
589.56898999999987
 21
208.88846000000001
 31
0.0
  0
LINE
  5
813
  8
_0-0_0
  6
CONTINUOUS
 62
     7
 10
589.56898999999987
 20
198.88846000000001
 30
0.0
 11
589.56898999999987
 21
148.88846000000001
 31
0.0
  0
LINE
  5
814
  8
_0-0_0
  6
CONTINUOUS
 62
     7
 10
589.56898999999987
 20
268.88846000000001
 30
0.0
 11
592.56898999999999
 21
268.88846000000001
 31
0.0
  0
LINE
  5
815
  8
_0-0_0
  6
CONTINUOUS
 62
     7
 10
589.56898999999987
 20
258.88846000000001
 30
0.0
 11
592.56898999999999
 21
258.88846000000001
 31
0.0
  0
LINE
  5
816
  8
_0-0_0
  6
CONTINUOUS
 62
     7
 10
589.56898999999987
 20
208.88846000000001
 30
0.0
 11
592.56898999999999
 21
208.88846000000001
 31
0.0
  0
LINE
  5
817
  8
_0-0_0
  6
CONTINUOUS
 62
     7
 10
589.56898999999987
 20
198.88846000000001
 30
0.0
 11
592.56898999999999
 21
198.88846000000001
 31
0.0
  0
LINE
  5
818
  8
_0-0_0
  6
CONTINUOUS
 62
     7
 10
589.56898999999987
 20
148.88846000000001
 30
0.0
 11
592.56898999999999
 21
148.88846000000001
 31
0.0
  0
LINE
  5
819
  8
_0-0_0
  6
CONTINUOUS
 62
     7
 10
589.56898999999987
 20
138.88846000000001
 30
0.0
 11
592.56898999999999
 21
138.88846000000001
 31
0.0
  0
LINE
  5
81A
  8
_0-0_0
  6
CONTINUOUS
 62
     7
 10
589.56898999999987
 20
138.88846000000001
 30
0.0
 11
589.56898999999987
 21
118.8884599999999
 31
0.0
  0
LINE
  5
81B
  8
_0-0_0
  6
CONTINUOUS
 62
     7
 10
601.19761000000005
 20
327.81079999999992
 30
0.0
 11
600.34715000000006
 21
325.23702999999989
 31
0.0
  0
LINE
  5
81C
  8
_0-0_0
  6
CONTINUOUS
 62
     7
 10
600.34715000000006
 20
325.23702999999989
 30
0.0
 11
599.02562999999986
 21
321.00778999999989
 31
0.0
  0
LINE
  5
81D
  8
_0-0_0
  6
CONTINUOUS
 62
     7
 10
599.02562999999986
 20
321.00778999999989
 30
0.0
 11
598.21709999999996
 21
318.23079999999987
 31
0.0
  0
LINE
  5
81E
  8
_0-0_0
  6
CONTINUOUS
 62
     7
 10
598.25600999999995
 20
328.47037
 30
0.0
 11
601.19761000000005
 21
327.81079999999992
 31
0.0
  0
LINE
  5
81F
  8
_0-0_0
  6
CONTINUOUS
 62
     7
 10
595.28400999999985
 20
318.88846000000001
 30
0.0
 11
598.21709999999996
 21
318.23079999999987
 31
0.0
  0
LINE
  5
820
  8
_0-0_0
  6
CONTINUOUS
 62
     7
 10
589.56898999999987
 20
118.8884599999999
 30
0.0
 11
619.56898999999987
 21
118.8884599999999
 31
0.0
  0
LINE
  5
821
  8
_0-0_0
  6
CONTINUOUS
 62
     7
 10
589.88350000000003
 20
291.63303000000002
 30
0.0
 11
589.56898999999987
 21
288.02346999999992
 31
0.0
  0
LINE
  5
822
  8
_0-0_0
  6
CONTINUOUS
 62
     7
 10
591.17033000000004
 20
300.99002000000002
 30
0.0
 11
589.88350000000003
 21
291.63303000000002
 31
0.0
  0
LINE
  5
823
  8
_0-0_0
  6
CONTINUOUS
 62
     7
 10
592.16980000000001
 20
306.37666999999988
 30
0.0
 11
591.17033000000004
 21
300.99002000000002
 31
0.0
  0
LINE
  5
824
  8
_0-0_0
  6
CONTINUOUS
 62
     7
 10
592.71229000000005
 20
308.90638000000001
 30
0.0
 11
592.16980000000001
 21
306.37666999999988
 31
0.0
  0
LINE
  5
825
  8
_0-0_0
  6
CONTINUOUS
 62
     7
 10
593.74900000000002
 20
313.25058999999987
 30
0.0
 11
592.71229000000005
 21
308.90638000000001
 31
0.0
  0
LINE
  5
826
  8
_0-0_0
  6
CONTINUOUS
 62
     7
 10
594.90107
 20
317.57319999999987
 30
0.0
 11
593.74900000000002
 21
313.25058999999987
 31
0.0
  0
LINE
  5
827
  8
_0-0_0
  6
CONTINUOUS
 62
     7
 10
595.28400999999985
 20
318.88846000000001
 30
0.0
 11
594.90107
 21
317.57319999999987
 31
0.0
  0
LINE
  5
828
  8
_0-0_0
  6
CONTINUOUS
 62
     7
 10
619.56898999999987
 20
368.88846000000001
 30
0.0
 11
619.04195000000004
 21
368.28958
 31
0.0
  0
LINE
  5
829
  8
_0-0_0
  6
CONTINUOUS
 62
     7
 10
619.04195000000004
 20
368.28958
 30
0.0
 11
618.13557000000003
 21
367.25522999999993
 31
0.0
  0
LINE
  5
82A
  8
_0-0_0
  6
CONTINUOUS
 62
     7
 10
618.13557000000003
 20
367.25522999999993
 30
0.0
 11
617.23554000000001
 21
366.21586000000002
 31
0.0
  0
LINE
  5
82B
  8
_0-0_0
  6
CONTINUOUS
 62
     7
 10
617.23554000000001
 20
366.21586000000002
 30
0.0
 11
616.34590000000003
 21
365.16831000000002
 31
0.0
  0
LINE
  5
82C
  8
_0-0_0
  6
CONTINUOUS
 62
     7
 10
616.34590000000003
 20
365.16831000000002
 30
0.0
 11
615.47068000000002
 21
364.10937999999999
 31
0.0
  0
LINE
  5
82D
  8
_0-0_0
  6
CONTINUOUS
 62
     7
 10
615.47068000000002
 20
364.10937999999999
 30
0.0
 11
614.61389999999994
 21
363.03591999999998
 31
0.0
  0
LINE
  5
82E
  8
_0-0_0
  6
CONTINUOUS
 62
     7
 10
614.61389999999994
 20
363.03591999999998
 30
0.0
 11
614.12701000000004
 21
362.40539999999999
 31
0.0
  0
LINE
  5
82F
  8
_0-0_0
  6
CONTINUOUS
 62
     7
 10
614.12701000000004
 20
362.40539999999999
 30
0.0
 11
613.35275000000001
 21
361.36633999999998
 31
0.0
  0
LINE
  5
830
  8
_0-0_0
  6
CONTINUOUS
 62
     7
 10
613.35275000000001
 20
361.36633999999998
 30
0.0
 11
612.06821000000002
 21
359.53676999999999
 31
0.0
  0
LINE
  5
831
  8
_0-0_0
  6
CONTINUOUS
 62
     7
 10
612.06821000000002
 20
359.53676999999999
 30
0.0
 11
610.84529999999995
 21
357.66320999999988
 31
0.0
  0
LINE
  5
832
  8
_0-0_0
  6
CONTINUOUS
 62
     7
 10
610.84529999999995
 20
357.66320999999988
 30
0.0
 11
609.68150000000003
 21
355.75053000000003
 31
0.0
  0
LINE
  5
833
  8
_0-0_0
  6
CONTINUOUS
 62
     7
 10
609.68150000000003
 20
355.75053000000003
 30
0.0
 11
608.57429000000002
 21
353.80363999999992
 31
0.0
  0
LINE
  5
834
  8
_0-0_0
  6
CONTINUOUS
 62
     7
 10
608.57429000000002
 20
353.80363999999992
 30
0.0
 11
607.52116000000001
 21
351.82738999999998
 31
0.0
  0
LINE
  5
835
  8
_0-0_0
  6
CONTINUOUS
 62
     7
 10
607.52116000000001
 20
351.82738999999998
 30
0.0
 11
606.93412999999987
 21
350.66966000000002
 31
0.0
  0
LINE
  5
836
  8
_0-0_0
  6
CONTINUOUS
 62
     7
 10
606.93412999999987
 20
350.66966000000002
 30
0.0
 11
606.14350000000002
 21
349.04325
 31
0.0
  0
LINE
  5
837
  8
_0-0_0
  6
CONTINUOUS
 62
     7
 10
606.14350000000002
 20
349.04325
 30
0.0
 11
604.85037
 21
346.20888000000002
 31
0.0
  0
LINE
  5
838
  8
_0-0_0
  6
CONTINUOUS
 62
     7
 10
604.85037
 20
346.20888000000002
 30
0.0
 11
603.63543000000004
 21
343.34079000000008
 31
0.0
  0
LINE
  5
839
  8
_0-0_0
  6
CONTINUOUS
 62
     7
 10
603.63543000000004
 20
343.34079000000008
 30
0.0
 11
602.48648000000003
 21
340.44422999999989
 31
0.0
  0
LINE
  5
83A
  8
_0-0_0
  6
CONTINUOUS
 62
     7
 10
602.48648000000003
 20
340.44422999999989
 30
0.0
 11
601.39138000000003
 21
337.52447000000001
 31
0.0
  0
LINE
  5
83B
  8
_0-0_0
  6
CONTINUOUS
 62
     7
 10
601.39138000000003
 20
337.52447000000001
 30
0.0
 11
600.33794999999998
 21
334.58676000000003
 31
0.0
  0
LINE
  5
83C
  8
_0-0_0
  6
CONTINUOUS
 62
     7
 10
600.33794999999998
 20
334.58676000000003
 30
0.0
 11
599.74125000000004
 21
332.87675000000002
 31
0.0
  0
LINE
  5
83D
  8
_0-0_0
  6
CONTINUOUS
 62
     7
 10
599.74125000000004
 20
332.87675000000002
 30
0.0
 11
598.89863000000003
 21
330.41514000000001
 31
0.0
  0
LINE
  5
83E
  8
_0-0_0
  6
CONTINUOUS
 62
     7
 10
598.89863000000003
 20
330.41514000000001
 30
0.0
 11
598.25600999999995
 21
328.47037
 31
0.0
  0
LINE
  5
83F
  8
_0-0_0
  6
CONTINUOUS
 62
     7
 10
579.93011000000001
 20
292.87841999999989
 30
0.0
 11
550.37540999999999
 21
295.27560999999992
 31
0.0
  0
LINE
  5
840
  8
_0-0_0
  6
CONTINUOUS
 62
     7
 10
556.36798999999985
 20
328.31614999999988
 30
0.0
 11
554.96321
 21
323.04538000000002
 31
0.0
  0
LINE
  5
841
  8
_0-0_0
  6
CONTINUOUS
 62
     7
 10
554.96321
 20
323.04538000000002
 30
0.0
 11
553.69799
 21
317.74358999999993
 31
0.0
  0
LINE
  5
842
  8
_0-0_0
  6
CONTINUOUS
 62
     7
 10
553.69799
 20
317.74358999999993
 30
0.0
 11
552.94245999999987
 21
314.22041000000002
 31
0.0
  0
LINE
  5
843
  8
_0-0_0
  6
CONTINUOUS
 62
     7
 10
552.94245999999987
 20
314.22041000000002
 30
0.0
 11
551.67083999999988
 21
307.36702999999989
 31
0.0
  0
LINE
  5
844
  8
_0-0_0
  6
CONTINUOUS
 62
     7
 10
551.67083999999988
 20
307.36702999999989
 30
0.0
 11
550.12088000000006
 21
296.09676000000002
 31
0.0
  0
LINE
  5
845
  8
_0-0_0
  6
CONTINUOUS
 62
     7
 10
585.26779999999997
 20
320.25893999999988
 30
0.0
 11
584.05255
 21
315.69929000000002
 31
0.0
  0
LINE
  5
846
  8
_0-0_0
  6
CONTINUOUS
 62
     7
 10
584.05255
 20
315.69929000000002
 30
0.0
 11
582.95871
 21
311.11567999999988
 31
0.0
  0
LINE
  5
847
  8
_0-0_0
  6
CONTINUOUS
 62
     7
 10
582.95871
 20
311.11567999999988
 30
0.0
 11
582.36297000000002
 21
308.33760999999993
 31
0.0
  0
LINE
  5
848
  8
_0-0_0
  6
CONTINUOUS
 62
     7
 10
582.36297000000002
 20
308.33760999999993
 30
0.0
 11
581.29546000000016
 21
302.58427
 31
0.0
  0
LINE
  5
849
  8
_0-0_0
  6
CONTINUOUS
 62
     7
 10
581.29546000000016
 20
302.58427
 30
0.0
 11
579.96007999999995
 21
292.87430000000001
 31
0.0
  0
LINE
  5
84A
  8
_0-0_0
  6
CONTINUOUS
 62
     7
 10
556.19146000000001
 20
327.65377999999993
 30
0.0
 11
556.45487000000003
 21
328.56040000000002
 31
0.0
  0
LINE
  5
84B
  8
_0-0_0
  6
CONTINUOUS
 62
     7
 10
556.45487000000003
 20
328.56040000000002
 30
0.0
 11
556.90998000000002
 21
330.12320999999997
 31
0.0
  0
LINE
  5
84C
  8
_0-0_0
  6
CONTINUOUS
 62
     7
 10
556.90998000000002
 20
330.12320999999997
 30
0.0
 11
557.36774000000003
 21
331.68508999999989
 31
0.0
  0
LINE
  5
84D
  8
_0-0_0
  6
CONTINUOUS
 62
     7
 10
557.36774000000003
 20
331.68508999999989
 30
0.0
 11
557.82980999999995
 21
333.24549000000002
 31
0.0
  0
LINE
  5
84E
  8
_0-0_0
  6
CONTINUOUS
 62
     7
 10
557.82980999999995
 20
333.24549000000002
 30
0.0
 11
558.29789000000005
 21
334.80380000000002
 31
0.0
  0
LINE
  5
84F
  8
_0-0_0
  6
CONTINUOUS
 62
     7
 10
558.29789000000005
 20
334.80380000000002
 30
0.0
 11
558.77363000000003
 21
336.35946000000001
 31
0.0
  0
LINE
  5
850
  8
_0-0_0
  6
CONTINUOUS
 62
     7
 10
558.77363000000003
 20
336.35946000000001
 30
0.0
 11
559.05372999999997
 21
337.26029999999992
 31
0.0
  0
LINE
  5
851
  8
_0-0_0
  6
CONTINUOUS
 62
     7
 10
559.05372999999997
 20
337.26029999999992
 30
0.0
 11
559.69281000000001
 21
339.27219000000002
 31
0.0
  0
LINE
  5
852
  8
_0-0_0
  6
CONTINUOUS
 62
     7
 10
559.69281000000001
 20
339.27219000000002
 30
0.0
 11
560.83097999999995
 21
342.72872000000001
 31
0.0
  0
LINE
  5
853
  8
_0-0_0
  6
CONTINUOUS
 62
     7
 10
560.83097999999995
 20
342.72872000000001
 30
0.0
 11
562.00832000000003
 21
346.17261999999999
 31
0.0
  0
LINE
  5
854
  8
_0-0_0
  6
CONTINUOUS
 62
     7
 10
562.00832000000003
 20
346.17261999999999
 30
0.0
 11
563.21691999999985
 21
349.60719
 31
0.0
  0
LINE
  5
855
  8
_0-0_0
  6
CONTINUOUS
 62
     7
 10
563.21691999999985
 20
349.60719
 30
0.0
 11
564.44884999999999
 21
353.03577999999987
 31
0.0
  0
LINE
  5
856
  8
_0-0_0
  6
CONTINUOUS
 62
     7
 10
564.44884999999999
 20
353.03577999999987
 30
0.0
 11
565.69620999999995
 21
356.46168999999992
 31
0.0
  0
LINE
  5
857
  8
_0-0_0
  6
CONTINUOUS
 62
     7
 10
565.69620999999995
 20
356.46168999999992
 30
0.0
 11
566.42362999999989
 21
358.44880999999992
 31
0.0
  0
LINE
  5
858
  8
_0-0_0
  6
CONTINUOUS
 62
     7
 10
566.42362999999989
 20
358.44880999999992
 30
0.0
 11
567.39130999999998
 21
361.08553000000001
 31
0.0
  0
LINE
  5
859
  8
_0-0_0
  6
CONTINUOUS
 62
     7
 10
567.39130999999998
 20
361.08553000000001
 30
0.0
 11
569.07880999999986
 21
365.62655999999993
 31
0.0
  0
LINE
  5
85A
  8
_0-0_0
  6
CONTINUOUS
 62
     7
 10
569.07880999999986
 20
365.62655999999993
 30
0.0
 11
570.81316000000004
 21
370.14812999999992
 31
0.0
  0
LINE
  5
85B
  8
_0-0_0
  6
CONTINUOUS
 62
     7
 10
570.81316000000004
 20
370.14812999999992
 30
0.0
 11
572.62076999999988
 21
374.6350599999999
 31
0.0
  0
LINE
  5
85C
  8
_0-0_0
  6
CONTINUOUS
 62
     7
 10
572.62076999999988
 20
374.6350599999999
 30
0.0
 11
574.52802999999994
 21
379.07215999999988
 31
0.0
  0
LINE
  5
85D
  8
_0-0_0
  6
CONTINUOUS
 62
     7
 10
574.52802999999994
 20
379.07215999999988
 30
0.0
 11
576.56134999999995
 21
383.44423
 31
0.0
  0
LINE
  5
85E
  8
_0-0_0
  6
CONTINUOUS
 62
     7
 10
576.56134999999995
 20
383.44423
 30
0.0
 11
577.80884000000003
 21
385.94425000000001
 31
0.0
  0
LINE
  5
85F
  8
_0-0_0
  6
CONTINUOUS
 62
     7
 10
577.80884000000003
 20
385.94425000000001
 30
0.0
 11
579.32176000000004
 21
388.80306000000002
 31
0.0
  0
LINE
  5
860
  8
_0-0_0
  6
CONTINUOUS
 62
     7
 10
579.32176000000004
 20
388.80306000000002
 30
0.0
 11
582.08720000000005
 21
393.64875000000001
 31
0.0
  0
LINE
  5
861
  8
_0-0_0
  6
CONTINUOUS
 62
     7
 10
582.08720000000005
 20
393.64875000000001
 30
0.0
 11
585.01989999999989
 21
398.40568000000002
 31
0.0
  0
LINE
  5
862
  8
_0-0_0
  6
CONTINUOUS
 62
     7
 10
585.01989999999989
 20
398.40568000000002
 30
0.0
 11
588.08334000000002
 21
403.09322999999989
 31
0.0
  0
LINE
  5
863
  8
_0-0_0
  6
CONTINUOUS
 62
     7
 10
588.08334000000002
 20
403.09322999999989
 30
0.0
 11
591.24100999999985
 21
407.73077000000001
 31
0.0
  0
LINE
  5
864
  8
_0-0_0
  6
CONTINUOUS
 62
     7
 10
591.24100999999985
 20
407.73077000000001
 30
0.0
 11
592.14666999999986
 21
409.02837999999991
 31
0.0
  0
LINE
  5
865
  8
_0-0_0
  6
CONTINUOUS
 62
     7
 10
606.22794999999985
 20
373.34217999999993
 30
0.0
 11
592.14666999999986
 21
409.02837999999991
 31
0.0
  0
LINE
  5
866
  8
_0-0_0
  6
CONTINUOUS
 62
     7
 10
606.56069000000002
 20
373.91849999999988
 30
0.0
 11
606.72591
 21
374.20468
 31
0.0
  0
LINE
  5
867
  8
_0-0_0
  6
CONTINUOUS
 62
     7
 10
588.45069999999998
 20
330.66890999999993
 30
0.0
 11
588.88702000000001
 21
332.06842999999992
 31
0.0
  0
LINE
  5
868
  8
_0-0_0
  6
CONTINUOUS
 62
     7
 10
588.88702000000001
 20
332.06842999999992
 30
0.0
 11
589.64178000000004
 21
334.48066999999992
 31
0.0
  0
LINE
  5
869
  8
_0-0_0
  6
CONTINUOUS
 62
     7
 10
589.64178000000004
 20
334.48066999999992
 30
0.0
 11
590.40344000000005
 21
336.89086999999989
 31
0.0
  0
LINE
  5
86A
  8
_0-0_0
  6
CONTINUOUS
 62
     7
 10
590.40344000000005
 20
336.89086999999989
 30
0.0
 11
591.17638999999986
 21
339.29775999999998
 31
0.0
  0
LINE
  5
86B
  8
_0-0_0
  6
CONTINUOUS
 62
     7
 10
591.17638999999986
 20
339.29775999999998
 30
0.0
 11
591.96496999999988
 21
341.70006000000001
 31
0.0
  0
LINE
  5
86C
  8
_0-0_0
  6
CONTINUOUS
 62
     7
 10
591.96496999999988
 20
341.70006000000001
 30
0.0
 11
592.77358000000004
 21
344.09647000000001
 31
0.0
  0
LINE
  5
86D
  8
_0-0_0
  6
CONTINUOUS
 62
     7
 10
592.77358000000004
 20
344.09647000000001
 30
0.0
 11
593.25346000000002
 21
345.48318999999992
 31
0.0
  0
LINE
  5
86E
  8
_0-0_0
  6
CONTINUOUS
 62
     7
 10
593.25346000000002
 20
345.48318999999992
 30
0.0
 11
593.82754999999986
 21
347.10527999999988
 31
0.0
  0
LINE
  5
86F
  8
_0-0_0
  6
CONTINUOUS
 62
     7
 10
593.82754999999986
 20
347.10527999999988
 30
0.0
 11
594.84991000000002
 21
349.89100000000002
 31
0.0
  0
LINE
  5
870
  8
_0-0_0
  6
CONTINUOUS
 62
     7
 10
594.84991000000002
 20
349.89100000000002
 30
0.0
 11
595.91848000000005
 21
352.65915999999987
 31
0.0
  0
LINE
  5
871
  8
_0-0_0
  6
CONTINUOUS
 62
     7
 10
595.91848000000005
 20
352.65915999999987
 30
0.0
 11
597.03908999999987
 21
355.40553999999992
 31
0.0
  0
LINE
  5
872
  8
_0-0_0
  6
CONTINUOUS
 62
     7
 10
597.03908999999987
 20
355.40553999999992
 30
0.0
 11
598.21758
 21
358.1259
 31
0.0
  0
LINE
  5
873
  8
_0-0_0
  6
CONTINUOUS
 62
     7
 10
598.21758
 20
358.1259
 30
0.0
 11
599.45979
 21
360.81601999999992
 31
0.0
  0
LINE
  5
874
  8
_0-0_0
  6
CONTINUOUS
 62
     7
 10
599.45979
 20
360.81601999999992
 30
0.0
 11
600.21176000000003
 21
362.36076999999989
 31
0.0
  0
LINE
  5
875
  8
_0-0_0
  6
CONTINUOUS
 62
     7
 10
600.21176000000003
 20
362.36076999999989
 30
0.0
 11
600.78399999999988
 21
363.49675000000002
 31
0.0
  0
LINE
  5
876
  8
_0-0_0
  6
CONTINUOUS
 62
     7
 10
600.78399999999988
 20
363.49675000000002
 30
0.0
 11
601.79852000000005
 21
365.44123000000002
 31
0.0
  0
LINE
  5
877
  8
_0-0_0
  6
CONTINUOUS
 62
     7
 10
601.79852000000005
 20
365.44123000000002
 30
0.0
 11
602.84276999999986
 21
367.37065000000001
 31
0.0
  0
LINE
  5
878
  8
_0-0_0
  6
CONTINUOUS
 62
     7
 10
602.84276999999986
 20
367.37065000000001
 30
0.0
 11
603.91025000000002
 21
369.28829999999999
 31
0.0
  0
LINE
  5
879
  8
_0-0_0
  6
CONTINUOUS
 62
     7
 10
603.91025000000002
 20
369.28829999999999
 30
0.0
 11
604.99447999999995
 21
371.19747999999998
 31
0.0
  0
LINE
  5
87A
  8
_0-0_0
  6
CONTINUOUS
 62
     7
 10
604.99447999999995
 20
371.19747999999998
 30
0.0
 11
606.08897000000002
 21
373.10145999999992
 31
0.0
  0
LINE
  5
87B
  8
_0-0_0
  6
CONTINUOUS
 62
     7
 10
606.08897000000002
 20
373.10145999999992
 30
0.0
 11
606.22794999999985
 21
373.34217999999993
 31
0.0
  0
LINE
  5
87C
  8
_0-0_0
  6
DASHED1
 62
     7
 10
-179.59323000000001
 20
-281.90919999999988
 30
0.0
 11
-73.752483000000012
 21
-281.90919999999988
 31
0.0
  0
ENDSEC
  0
EOF
